Oops, an error
Loading. Please wait.

Somebody Kill Me tab

version 2
version 2

Whole song

Interactive

49,845 views 36 this week
9 commentsread comments
1 2 3 4 5
x 19
add to favorites
×
Save as Personal and add changes to this tab that will be seen only by you. Learn more ›
×
You can save this tab as Personal to edit and correct it or add notes. All changes will be seen only by you. Learn more »
launch autoscroll
font size
0
reset
how to read this tab
guitar tuner
edit
Autoscroll
slow
fast
+/-
esc
set tempo
stop
Author
-----------------------------------------------------------------------------
                        Somebody Kill Me - Adam Sandler
-----------------------------------------------------------------------------
Tabbed by: Kenneth McClure
Email: ken_chosen1@hotmail.com

Tuning: Standard (EADGBe)

The song is basically the same all the way through except the verse is
palm-muted and the chorus is open. This song is taken from The Wedding
Singer. Great movie. One of Sandler's best in my opinion.

Verse (Palm-Muted)
   
e|------------------------------------|
B|------------------------------------|
G|----------44444444-2222222222222222-| 
D|-22222222-44444444-2222222222222222-|
A|-22222222-22222222-0000000000000000-|
E|-00000000---------------------------|
   ........ ........ ................

Chorus

e|------------------------------------|
B|------------------------------------|
G|----------44444444-2222222222222222-|  
D|-22222222-44444444-2222222222222222-|
A|-22222222-22222222-0000000000000000-|
E|-00000000---------------------------|

Song Order

Verse x4
Chorus x4
Verse x3
Chorus x6

-----------------------------------------------------------------------------
Lyrics
-----------------------------------------------------------------------------

You don't know how much I need you
While you're near me I don't feel blue
And when we kissed I know you need me too
I can't believe I found a love that's so pure and true

But it all was bull-sh*t
It was a god damn joke
And when I think of you Linda
I hope you fu**ing choke 

I hope that you're glad with what you've done to me
I lay in bed all day long feeling melancholy
You left me here all alone tears running constantly

Oh somebody kill me please 
Somebody kill me please 
I'm on my knees
Pretty pretty please
Kill me 
I want to die
Put a bullet in my head

            
            
Suggest correction
Creating personal tab
Creating personal tab
You can edit any tab online and save it as your Personal.

You can edit, replace or remove any tab part or add personal notes – all changes will be seen only by you.

Personal tabs can be accessed anytime from any device, even offline.
Learn more »
comments
print report bad tab
9 comments total. Showing first comments.
0 reply
Maverickxl7 51 Jul 15, 2006 03:29 PM

Perfect!

+1 reply
Cowboys9224 120 Oct 11, 2006 05:39 PM

Great tab.... everytime I see the movie I laugh my ass off during that part.

-2 reply
BloodxrAven 10 Jun 21, 2007 07:42 PM

idk how its played but it should be noted that in the movie, this is what his hands are doing for the verse, although it is "lip-synched"

Palm-muted
__E_______B_______A______________
e|-------------------------------
B|-------------------------------
G|--------1-1-1-1-2-2-2-2-2-2-2-2
D|--------2-2-2-2-0-0-0-0-0-0-0-0
A|2-2-2-2------------------------
E|0-0-0-0------------------------

guest
You may want to rate the tab now too:
select rating
Wanna post a correction for this tab? Suggest correction