Oops, an error
Loading. Please wait.

Daydream Tab

4 views 1 this week
no commentswrite comment
1 2 3 4 5
3 more votes to show rating
add to favorites
launch autoscroll
font size
0
reset
how to read this tab
guitar tuner
Autoscroll
slow
fast
+/-
esc
set tempo
stop
Help us to improve Ultimate-Guitar.com Take our survey!
×
Author
Difficulty
novice
[Intro]
|---------1------------------------------------|
|-3-------3-----------3-3-----2-2-2-2-2-2-2----|
|-2-------2-----------2-2-----2-2-2-2-2-2-2----|
|-0-------0------------------------------------|
|-0--------------------------------------------|
|-----------------1-------0--------------------|

[Chorus]
|------------------------------|
|-3-------3--------------------|
|-2-------2-------2-------4----|
|-3-------3-------3-------5----|
|-1-------1-------3-------5----|
|-----------------1-------3----|(x4)

[Verse]
|---------1------------------------------------|
|-3-------3-----------3-3-----2-2-2-2-2-2-2----|
|-2-------2-----------2-2-----2-2-2-2-2-2-2----|
|-0-------0------------------------------------|
|-0--------------------------------------------|
|-----------------1-------0--------------------|(x6)

[Chorus]
|------------------------------|
|-3-------3--------------------|
|-2-------2-------2-------4----|
|-3-------3-------3-------5----|
|-1-------1-------3-------5----|
|-----------------1-------3----|(x4)

[Outro]
|---------1------------------------------------|
|-3-------3-----------3-3-----2-2-2-2-2-2-2----|
|-2-------2-----------2-2-----2-2-2-2-2-2-2----|
|-0-------0------------------------------------|
|-0--------------------------------------------|
|-----------------1-------0--------------------|(x3)

|---------1-------------------------------------|
|-3-------3-----------3-3-----2-2-2-2-2-2-2---3-|
|-2-------2-----------2-2-----2-2-2-2-2-2-2---2-|
|-0-------0-----------------------------------0-|
|-0-------------------------------------------0-|
|-----------------1-------0---------------------|
Suggest correction
Give kudos to tab author, rate the tab!
1 2 3 4 5
comments
print report bad tab
guest
You may want to rate the tab now too:
select rating
Wanna post a correction for this tab? Suggest correction