Oops, an error
Loading. Please wait.

Juniper Arms Tab

34 views 3 this week
no commentswrite comment
1 2 3 4 5
2 more votes to show rating
add to favorites
launch autoscroll
font size
0
reset
how to read this tab
guitar tuner
Autoscroll
slow
fast
+/-
esc
set tempo
stop
Help us to improve Ultimate-Guitar.com Take our survey!
×
Author
Capo
4th fret
[Intro]

E|--------------0-----------------------------0-----------------------------------3--2--0--|
B|--2--2--2--------2--------------------0-----------------------------------0-----0--0--0--|
G|--------------------2--0-----------0-----0-----------0-----------------0-----0-----------|
D|--------------------------------2-----------------2-----2--0--------0--------------------|
A|--0--------2-----------------------------------------------------------------------------|
E|--------------------------0-----------------------------------3--------------------------|

E|--------------------------------------------------------0--------|
B|--------------2-----------------2-----------------2--------2-----|
G|-----------2-----2-----------2-----2-----------2-----2--------2--|
D|--------2-----------------2-----------------2--------------------|
A|--0-----------------------------------0-----------------0--------|
E|--------------------0--------------------------------------------|

E|--------------------0-----------------------------------3--2--0--|
B|--------------0-----------------0-----------------0-----0--0--0--|
G|-----------0-----0-----------0-----0-----------0-----0-----------|
D|--------2-----------------2-----------------0--------------------|
A|-----------------------------------------------------------------|
E|--0-----------------------------------3--------------------------|

E|--------------------------------------------------------0--------|
B|--------------2-----------------2-----------------2--------2-----|
G|-----------2-----2-----------2-----2-----------2-----2--------2--|
D|--------2-----------------2-----------------2--------------------|
A|--0-----------------------------------0-----------------0--------|
E|--------------------0--------------------------------------------|


[Chorus]

E|--------------------0-----------------------------------3--2--0--|
B|--------------0-----------------0-----------------0-----0--0--0--|
G|-----------0-----0-----------0-----0-----------0-----0-----------|
D|--------2-----------------2-----------------0--------------------|
A|-----------------------------------------------------------------|
E|--0-----------------------------------3--------------------------|

E|--------------------------------------------------------0--------|
B|--------------2-----------------2-----------------2--------2-----|
G|-----------2-----2-----------2-----2-----------2-----2--------2--|  
D|--------2-----------------2-----------------2--------------------|
A|--0-----------------------------------0-----------------0--------|
E|--------------------0--------------------------------------------|(x4)


[Verse 1]

E|--------------------0-----------------------------------3--2--0--|
B|--------------0-----------------0-----------------0-----0--0--0--|
G|-----------0-----0-----------0-----0-----------0-----0-----------|
D|--------2-----------------2-----------------0--------------------|
A|-----------------------------------------------------------------|
E|--0-----------------------------------3--------------------------|

E|--------------------------------------------------------0--------|
B|--------------2-----------------2-----------------2--------2-----|
G|-----------2-----2-----------2-----2-----------2-----2--------2--|  
D|--------2-----------------2-----------------2--------------------|
A|--0-----------------------------------0-----------------0--------|
E|--------------------0--------------------------------------------|(x4)


[Chorus]

E|--------------------0-----------------------------------3--2--0--|
B|--------------0-----------------0-----------------0-----0--0--0--|
G|-----------0-----0-----------0-----0-----------0-----0-----------|
D|--------2-----------------2-----------------0--------------------|
A|-----------------------------------------------------------------|
E|--0-----------------------------------3--------------------------|

E|--------------------------------------------------------0--------|
B|--------------2-----------------2-----------------2--------2-----|
G|-----------2-----2-----------2-----2-----------2-----2--------2--|  
D|--------2-----------------2-----------------2--------------------|
A|--0-----------------------------------0-----------------0--------|
E|--------------------0--------------------------------------------|(x4)


[Verse 2]

E|--0-----------------------------------3--------------------------|
B|--0-----------------------------------0--------------------------|
G|--0-----------------------------------0--------------------------|
D|--2-----------------------------------0--------------------------|
A|--2-----------------------------------2--------------------------|
E|--0-----------------------------------3--------------------------|

E|--0-----------------------------------0--------------------------|
B|--2-----------------------------------2--------------------------|
G|--2-----------------------------------2--------------------------|  
D|--2-----------------------------------2--------------------------|
A|--0-----------------------------------0--------------------------|
E|-----------------------------------------------------------------|(x2)


E|--------------------0-----------------------------------3--2--0--|
B|--------------0-----------------0-----------------0-----0--0--0--|
G|-----------0-----0-----------0-----0-----------0-----0-----------|
D|--------2-----------------2-----------------0--------------------|
A|-----------------------------------------------------------------|
E|--0-----------------------------------3--------------------------|

E|--------------------------------------------------------0--------|
B|--------------2-----------------2-----------------2--------2-----|
G|-----------2-----2-----------2-----2-----------2-----2--------2--|  
D|--------2-----------------2-----------------2--------------------|
A|--0-----------------------------------0-----------------0--------|
E|--------------------0--------------------------------------------|(x2)


[Chorus]

E|--------------------0-----------------------------------3--2--0--|
B|--------------0-----------------0-----------------0-----0--0--0--|
G|-----------0-----0-----------0-----0-----------0-----0-----------|
D|--------2-----------------2-----------------0--------------------|
A|-----------------------------------------------------------------|
E|--0-----------------------------------3--------------------------|

E|--------------------------------------------------------0--------|
B|--------------2-----------------2-----------------2--------2-----|
G|-----------2-----2-----------2-----2-----------2-----2--------2--|  
D|--------2-----------------2-----------------2--------------------|
A|--0-----------------------------------0-----------------0--------|
E|--------------------0--------------------------------------------|(x3)


[Outro]

E|--------------------0-----------------------------------3--2--0--|
B|--------------0-----------------0-----------------0-----0--0--0--|
G|-----------0-----0-----------0-----0-----------0-----0-----------|
D|--------2-----------------2-----------------0--------------------|
A|-----------------------------------------------------------------|
E|--0-----------------------------------3--------------------------|

E|--------------------------------------------------------3-----------------|
B|--------------2-----------------2-----------------0-----------------0-----|
G|-----------2-----2-----------2-----2-----------0-----0-----------0-----0--|  
D|--------2-----------------2-----------------0-----------------0-----------|
A|--0-----------------------------------------------------------------------|
E|--------------------0-----------------3-----------------------------------|(x3)

E|-----------------------------------------------------------|
B|--------------2-----------------2-----------------2--------|
G|-----------2-----2-----------2-----2-----------2-----2-----|
D|--------2-----------------2-----------------2--------------|
A|--0-----------------0-----------------0-----------------0--|
E|-----------------------------------------------------------|
Suggest correction
Give kudos to tab author, rate the tab!
1 2 3 4 5
comments
print report bad tab
guest
You may want to rate the tab now too:
select rating
Wanna post a correction for this tab? Suggest correction