Oops, an error
Loading. Please wait.

Mountain River Tab

13 views 1 this week
no commentswrite comment
1 2 3 4 5
3 more votes to show rating
add to favorites
launch autoscroll
font size
0
reset
how to read this tab
guitar tuner
Autoscroll
slow
fast
+/-
esc
set tempo
stop
Help us to improve Ultimate-Guitar.com Take our survey!
×
Author
Difficulty
intermediate
[Intro]
e|-------------------------3--------|
B|---0-----0-----0h1---------0------|
G|---0-------0-------0---------0----|
D|---0---------0--h2---2------------|
A|----------------------------------|
E|-3-------------3-------3----------|(x4)

[Verse 1]
e|-------------------------3--------|
B|---0-----0-----0h1---------0------|
G|---0-------0-------0---------0----|
D|---0---------0--h2---2------------|
A|----------------------------------|
E|-3-------------3-------3----------|(x8)

[Chorus]
e|------------------------------------|
B|---3---3---3---3---3---3---3---3----|
G|---4---4---4---4---4---4---4---4----|
D|---4---4---4---4---4---4---4---4----|
A|-2-------2-------2-------2----------|
E|------------------------------------|

e|--------------------------------------|
B|---1---1---1---1---1---1-------1------|
G|---0---0---0---0---0---0-----0--------|
D|---2---2---2---2---2---2-0h2-----0----|
A|--------------------------------------|
E|-3-------3-------3--------------------|

e|------------------------------------|
B|---3---3---3---3---3---3---3---3----|
G|---4---4---4---4---4---4---4---4----|
D|---4---4---4---4---4---4---4---4----|
A|-2-------2-------2-------2----------|
E|------------------------------------|

e|----------------------------------------------|
B|---1---1-------1-------1---1---1-------1------|
G|---0---0-----0-------0-----0---0-----0--------|
D|---2---2-0h2-----0h2-------2---2-0h2-----0----|
A|----------------------------------------------|
E|-3-----------------------3--------------------|

e|-------3-----------3------------------------------|
B|---0-----0-----0-----0-----1-------1-------1------|
G|---0-------0---0-------0---0-----0-------0--------|
D|---0-----------0-----------2-0h2-----0h2-----0----|
A|--------------------------------------------------|
E|-3-----------3-----------3------------------------|(x4)

[Verse 2]
e|-------------------------3--------|
B|---0-----0-----0h1---------0------|
G|---0-------0-------0---------0----|
D|---0---------0--h2---2------------|
A|----------------------------------|
E|-3-------------3-------3----------|(x8)

[Chorus]
e|------------------------------------|
B|---3---3---3---3---3---3---3---3----|
G|---4---4---4---4---4---4---4---4----|
D|---4---4---4---4---4---4---4---4----|
A|-2-------2-------2-------2----------|
E|------------------------------------|

e|--------------------------------------|
B|---1---1---1---1---1---1-------1------|
G|---0---0---0---0---0---0-----0--------|
D|---2---2---2---2---2---2-0h2-----0----|
A|--------------------------------------|
E|-3-------3-------3--------------------|

e|------------------------------------|
B|---3---3---3---3---3---3---3---3----|
G|---4---4---4---4---4---4---4---4----|
D|---4---4---4---4---4---4---4---4----|
A|-2-------2-------2-------2----------|
E|------------------------------------|

e|----------------------------------------------|
B|---1---1-------1-------1---1---1-------1------|
G|---0---0-----0-------0-----0---0-----0--------|
D|---2---2-0h2-----0h2-------2---2-0h2-----0----|
A|----------------------------------------------|
E|-3-----------------------3--------------------|

e|-------3-----------3------------------------------|
B|---0-----0-----0-----0-----1-------1-------1------|
G|---0-------0---0-------0---0-----0-------0--------|
D|---0-----------0-----------2-0h2-----0h2-----0----|
A|--------------------------------------------------|
E|-3-----------3-----------3------------------------|(x4)


[Verse 3] (same as Verse 1)
e|-------------------------3--------|
B|---0-----0-----0h1---------0------|
G|---0-------0-------0---------0----|
D|---0---------0--h2---2------------|
A|----------------------------------|
E|-3-------------3-------3----------|(x8)

[Chorus]
e|------------------------------------|
B|---3---3---3---3---3---3---3---3----|
G|---4---4---4---4---4---4---4---4----|
D|---4---4---4---4---4---4---4---4----|
A|-2-------2-------2-------2----------|
E|------------------------------------|

e|--------------------------------------|
B|---1---1---1---1---1---1-------1------|
G|---0---0---0---0---0---0-----0--------|
D|---2---2---2---2---2---2-0h2-----0----|
A|--------------------------------------|
E|-3-------3-------3--------------------|

e|------------------------------------|
B|---3---3---3---3---3---3---3---3----|
G|---4---4---4---4---4---4---4---4----|
D|---4---4---4---4---4---4---4---4----|
A|-2-------2-------2-------2----------|
E|------------------------------------|

e|----------------------------------------------|
B|---1---1-------1-------1---1---1-------1------|
G|---0---0-----0-------0-----0---0-----0--------|
D|---2---2-0h2-----0h2-------2---2-0h2-----0----|
A|----------------------------------------------|
E|-3-----------------------3--------------------|

e|-------3-----------3------------------------------|
B|---0-----0-----0-----0-----1-------1-------1------|
G|---0-------0---0-------0---0-----0-------0--------|
D|---0-----------0-----------2-0h2-----0h2-----0----|
A|--------------------------------------------------|
E|-3-----------3-----------3------------------------|(x3)

e|-------3-----------3------------------------------------|
B|---0-----0-----0-----0-----1-------1-------1-------0----|
G|---0-------0---0-------0---0-----0-------0---------0----|
D|---0-----------0-----------2-0h2-----0h2-----0-----0----|
A|--------------------------------------------------------|
E|-3-----------3-----------3-----------------------3------|


*********************************** 

| h Hammer-on

***********************************
Suggest correction
Give kudos to tab author, rate the tab!
1 2 3 4 5
comments
print report bad tab
guest
You may want to rate the tab now too:
select rating
Wanna post a correction for this tab? Suggest correction