Oops, an error
Loading. Please wait.

Atlanta Tab

232 views 6 this week
1 commentread comment
1 2 3 4 5
1 last vote to show rating
add to favorites
×
Save as Personal and add changes to this tab that will be seen only by you. Learn more ›
×
You can save this tab as Personal to edit and correct it or add notes. All changes will be seen only by you. Learn more »
save as personal
new!
launch autoscroll
font size
0
reset
how to read this tab
guitar tuner
Autoscroll
slow
fast
+/-
esc
set tempo
stop
Author
Difficulty
Tuning
intermediate
E A D G B E
Song: "Atlanta"
Artist: Adam Young
Album: Corduroy Road

[Section 1] (0:00-0:51 and 1:41-2:31)

e|-----------------------------------------------------------------------------|
B|-----------------------------------------------------------------------------|
G|-7-------7/9--6------7-------7/11--6------5-------5/7--4------5-------5/9--4-|
D|------------------------5---5---------------3---3---------------3---3--------|
A|-7-------------------7---7----------------5---5---------------5---5----------|
E|--------------5--------------------5-------------------3-------------------3-|

e|-------------------------------------------------------------------------------------|
B|-------------------------------------------------------------------------------------|
G|-7-------7/9--6------7-------7/11--6------5-------5/7--4------5-------5/9--4-4h5p4p0-|
D|---5---5----------------5---5---------------3---3---------------3---3----------------|
A|-7---7---------------7---7----------------5---5---------------5---5------------------|
E|--------------5--------------------5-------------------3-------------------3---------|

e|--------------------------------------------------|
B|--------------------------------------------------|
G|--------------------------------------------------|
D|-----0-------0------0----------0-------0------0-0-|
A|---7------10-----10----------7------10-----10---9-|
E|-5-----/7------8-----------5-----/7------8--------|
________________________________________________________________________________________

[Section 2] (0:52-1:40 and 2:32-3:39)

Lead Guitar
e|--------------------------------------------------|
B|--------------------------------------------------|
G|-4/7-----9-\4-----2--2/4-----2--0-----------------|
D|--------------------------------------------------|
A|--------------------------------------------------|
E|--------------------------------------------------|

e|--------------------------------------------------|
B|--------------------------------------------------|
G|-4/7-----9-\4--------2/4-----2--0-----------------|
D|--------------------------------------------------|
A|--------------------------------------------------|
E|--------------------------------------------------|

e|--------------------------------------------------|
B|--------------------------------------------------|
G|-----0-0-0-----0--0-7---7/9-9--2---2--------------|
D|-0h2-------0h2------------------------------------|
A|--------------------------------------------------|
E|--------------------------------------------------|

e|--------------------------------------------------|
B|--------------------------------------------------|
G|-2/4\2p0-----0---7-7/9-2---2----------------------|
D|---------2----------------------------------------|
A|--------------------------------------------------|
E|--------------------------------------------------|

e|--------------------------------------------------|
B|--------------------------------------------------|
G|-2/4h5p4-0-----0---7-7-2---2----------------------|
D|-----------2--------------------------------------|
A|--------------------------------------------------|
E|--------------------------------------------------|

e|--------------------------------------------------|
B|--------------------------------------------------|
G|-2/4\2p0-----0---77-4-2------0--------------------|
D|---------2----------------------------------------|
A|--------------------------------------------------|
E|--------------------------------------------------|

Rhythm Picking (repeat through end of section)
e|--------------------------------------------------|
B|--------------------------------------------------|
G|--------------------------------------------------|
D|---5----5-----5----5-----5----5-----5----5--------|
A|-7----7-----7----7-----5----5-----5----5----------|
E|--------------------------------------------------|

High Picking (second half of Section 2; repeat through end of section)
e|-----5-----5-------5-----5-------5-----5-------5-----5-|
B|---3-----3-------3-----3-------3-----3-------3-----3---|
G|-2-----2-------2-----2-------0-----0-------0-----0-----|
D|-------------------------------------------------------|
A|-------------------------------------------------------|
E|-------------------------------------------------------|
________________________________________________________________________________________

End on:
e|---|
B|---|
G|---|
D|-5-|
A|-5-|
E|-3-|


**********************************

| /  slide up
| \  slide down
| h  hammer-on
| p  pull-off

**********************************
Suggest correction
Give kudos to tab author, rate the tab!
1 2 3 4 5
comments
print report bad tab
1 comment total.
0 reply
richardmcd21 10 Apr 29, 2017 04:04 PM

This is fantastic. Thanks you

guest
You may want to rate the tab now too:
select rating
Wanna post a correction for this tab? Suggest correction