Oops, an error
Loading. Please wait.

Sherman tab

34 views 3 this week
no commentswrite comment
1 2 3 4 5
3 more votes to show rating
add to favorites
×
Save as Personal and add changes to this tab that will be seen only by you. Learn more ›
×
You can save this tab as Personal to edit and correct it or add notes. All changes will be seen only by you. Learn more »
launch autoscroll
font size
0
reset
how to read this tab
guitar tuner
edit
Autoscroll
slow
fast
+/-
esc
set tempo
stop
About this tab version
This tab does not include banjo parts, just the acoustic guitar and electric guitar overlay. Was this info helpful? Yes No
[0:09-0:15)
e|--0----0-------0--------------3p0------|-0----0------0----------------------|
B|--3/5--3/5\3---0----------3p0----------|-3/5--3/5\3--0----------------------|
G|------------------2---2p0--------------|----------------2--2/4/2p0----------|
D|---------------------------------------|---------------------------2p0------|
A|---------------------------------------|------------------------------------|
E|---------------------------------------|------------------------------------|

[0:15-0:28)
e|-----------------|-----------------|-----------------------------------------|
B|-----------------|-----------------|-----------------------------------------|
G|-----------------|-----------------|-----------------------------------------|
D|-----------------|-----------------|------------------------------0h2--------| (x2)
A|-----------------|-----------------|-----------------------------------------|
E|-0--0--5h6h7/10--|--0-0-5h6h7/10---|---0-0--0-5h6h7/10---7p6p5-3--0----------|

[0:29-0:55)
e|------0--------3--|-----5----5---------------|-----0--------3-|-----7----5-------------|
B|------0--------3--|-----7----5---------------|-----0--------3-|-----7----5-------------|
G|------1--------4--|-----7----6---------------|-----0--------4-|-----7----6-------------|
D|------0--------5--|-----7----7---7/9\7p5-----|-----2--------5-|-----9----7--9p7p5------|
A|-0h2--2--------5--|-3/5-5----7-----------7p5-|-0h2-2--------5-|-----9----7--------7p5--|
E|------0--2-2/3-3--|-----5--5-5---------------|-----0--2-2/3-3-|-5/7-7--5-5-------------|

e|------0--------3--|-----5----5---------------|-----0--------3-|-----7----5-------------|
B|------0--------3--|-----5----5---------------|-----0--------3-|-----7----5-------------|
G|------0--------4--|-----7----6---------------|-----0--------4-|-----7----6-------------|
D|------2--------5--|-----7----7---7/9\7p5-----|-----2--------5-|-----9----7--9p7p5------|
A|-0h2--2--------5--|-3/5-5----7-----------7p5-|-0h2-2--------5-|-----9----7--------7p5--|
E|------0--2-2/3-3--|-----5--5-5---------------|-----0--2-2/3-3-|-5/7-7--5-5-------------|

[0:56-1:07)
e|------0--------3---|---------------------------------------|
B|------0--------3---|---------------------------------------|
G|------0--------4---|---------------------------------------|
D|------2--------5---|----9/11-----11----9----9/11------11---|  (x2)
A|-0h2--2--------5---|---10/12-----12----10---10/12-----12---|
E|------0--2-2/3-3---|--(10)/(12)-(12)--(10)-(10)/(12)-(12)--|

(Electric guitar)
e|-------------------|----------------------------------------|
B|-------------------|----------------------------------------|
G|-----7-----7---9/11|----------------------------------------|
D|-7h9---7h9---9-----|--9p7-----------------------------------| (x2)
A|-------------------|----------------------------------------|
E|-------------------|----------------------------------------|

(1:08-1:51)
e|--0----0-------0--------------3p0------|-0----0------0----------------------|
B|--3/5--3/5\3---0----------3p0----------|-3/5--3/5\3--0----------------------|
G|------------------2---2p0--------------|----------------2--2/4/2p0----------|
D|---------------------------------------|---------------------------2p0------| (x7)
A|---------------------------------------|------------------------------------|
E|---------------------------------------|------------------------------------|

(After 2nd time, these chords are played over that, one per measure:
Em G D A Em G Bm A)

(1:52-1:58)
e|-----------------|-----------------|-----------------------------------------|
B|-----------------|-----------------|-----------------------------------------|
G|-----------------|-----------------|-----------------------------------------|
D|-----------------|-----------------|------------------------------0h2--------|
A|-----------------|-----------------|-----------------------------------------|
E|-0--0--5h6h7/10--|--0-0-5h6h7/10---|---0-0--0-5h6h7/10---7p6p5-3--0----------|

(1:59-2:22)
e|------0--------3--|-----5----5---------------|------0--------3--|-----7----5-------------|
B|------0--------3--|-----7----5---------------|------0--------3--|-----7----5-------------|
G|------0--------4--|-----7----6---------------|------0--------4--|-----7----6-------------|
D|------2--------5--|-----7----7---7/9\7p5-----|------2--------5--|-----9----7---9p7p5-----| (x2)
A|-0h2--2--------5--|-3/5-5----7-----------7p5-|-0h2--2--------5--|-----9----7---------7p5-|
E|------0--2-2/3-3--|-----5--5-5---------------|------0--2-2/3-3--|-5/7-7--5-5-------------|

(Electric guitar)
e|------------------|--------------------------|------------------|------------------------|
B|------------------|--------------------------|------------------|------------------------|
G|------------------|--------------------------|------------------|------------------------|
D|-----7/9-7p5------|--------------------------|-----7/9-7p5------|------------------------| (x2)
A|-------------7p5--|-7/9-7/9-5--5-------------|-------------7p5--|-7/9-7/9-5--5h7---------|
E|------------------|-----------7--------------|------------------|-----------7------------|

(2:23-2:35)
e|------0--------3--|---------------------------------------|
B|------0--------3--|---------------------------------------|
G|------0--------4--|---------------------------------------|
D|------2--------5--|----9/11-----11----9----9/11------11---| (x2)
A|-0h2--2--------5--|---10/12-----12----10---10/12-----12---|
E|------0--2-2/3-3--|--(10)/(12)-(12)--(10)-(10)/(12)-(12)--|

(Electric guitar)
e|-------------------|----------------------------------------|
B|-------------------|----------------------------------------|
G|-----7-----7---9/11|----------------------------------------|
D|-7h9---7h9---9-----|--9p7-----------------------------------| (x2)
A|-------------------|----------------------------------------|
E|-------------------|----------------------------------------|

(2:36-3:13)
e|--0----0-------0--------------3p0------|-0----0------0----x--x--------------|
B|--3/5--3/5\3---0----------3p0----------|-3/5--3/5\3--0----x--x--------------|
G|------------------2---2p0--------------|------------------x--x--------------|
D|---------------------------------------|------------------x--x--------------|
A|---------------------------------------|------------------x--x--------------|
E|---------------------------------------|------------------x--x--------------|

e|--0----0-------0--------------3p0------|-0----0------0----------------------|
B|--3/5--3/5/3---0----------3p0----------|-3/5--3/5/3--0----------------------|
G|------------------2---2p0--------------|----------------2--2/4\2p0----------|
D|---------------------------------------|---------------------------2p0------| (x5)
A|---------------------------------------|------------------------------------|
E|---------------------------------------|------------------------------------|

(hese chords are played over it, one per measure:)
Em G D A Em G Bm A

(3:14-3:28)
e|-----------------|-----------------|-----------------------------------------|
B|-----------------|-----------------|-----------------------------------------|
G|-----------------|-----------------|-----------------------------------------|
D|-----------------|-----------------|------------------------------0h2--------| (x2)
A|-----------------|-----------------|-----------------------------------------|
E|-0--0--5h6h7/10--|--0-0-5h6h7/10---|---0-0--0-5h6h7/10---7p6p5-3--0----------|

(Banjo plays)
e|------------------------------3p0------|-------------------------------------|
B|--3/5--3/5\3---0----------3p0----------|-3/5--3/5\3--0-----------------------|
G|------------------2---2p0--------------|----------------2--2p0---------------|
D|---------------------------------------|-----------------------0h2-----------| (x2)
A|---------------------------------------|-------------------------------------|
E|---------------------------------------|-------------------------------------|


***********************************

| /   Slide up
| \   Slide down
| h   Hammer-on
| p   Pull-off
| x   Dead note
| ()  Ghost note

***********************************

            
            
Suggest correction
Creating personal tab
Creating personal tab
You can edit any tab online and save it as your Personal.

You can edit, replace or remove any tab part or add personal notes – all changes will be seen only by you.

Personal tabs can be accessed anytime from any device, even offline.
Learn more »
Give kudos to tab author, rate the tab!
1 2 3 4 5
comments
print report bad tab
guest
You may want to rate the tab now too:
select rating
Wanna post a correction for this tab? Suggest correction