Oops, an error
Loading. Please wait.

Best For Last Bass Tab

version 1
version 1

Whole song

69,774 views 111 this week
3 commentsread comments
1 2 3 4 5
excellent!
x 18
add to favorites
launch autoscroll
font size
0
reset
guitar tuner
Tab Pro tools
  • play this tab
  • loop segment
  • change instrument
  • show fretboard
  • metronome
×
Best way to learn
"Best For Last"
Autoscroll
slow
fast
+/-
esc
set tempo
stop
Contributor
Best for last by Adele
Standard Tuning
E A D G
This was written by a thirteen year old. Please rate this is my first bass tab,
well first tab over all so please rate .

G---------------------0-----------------------------------------------------|
D--------4------------2-----------4-------------2---------------------------|
A--------5------------------------5-------------3------------0-----------3--|
E---------------------------------------------------------------------------|


G---------------------0-----------2-----------4--------2---------0----------|
D--------4------------2-----------4-----------5--------4---------2----------|
A--------5------------------------------------------------------------------|
E---------------------------------------------------------------------------|
                                                                                    Repeat


G---------------------------------0--0--0-------------2--2--2--------4--4--4-|
D---------(0)--4--4--4--------2------------------4----------------5----------|
A------0---5--------------0------------------0------------0------------------|
E----------------------------------------------------------------------------|

You’ll have to listen to the song to find out how many times to play through. :s
comments
print report bad tab
3 comments total.
+2 reply
xb400 wrote on December 29 2010, 07:27 pm

Just a suggestion, just a bit easer to play.

g--------------------------------------
d------444-----555-----777------999----
a--0-5-----0-7-----0-9-----0-10-----0--
e--------------------------------------

0 reply
RHarris1349 wrote on January 4 2011, 06:25 pm

A thirteen yr old? Not bad. You just taught me bass chords, kid.

0 reply
zosobeatles wrote on May 6 2011, 04:48 pm

Great work mate! Doing this in a gig and really needed the tab. Love you!

I want to post or [tab]
guest
You may want to rate the tab now too:
select rating
Please do not post tabs as comments. Select "correction" instead!