Oops, an error
Loading. Please wait.

Chasing Pavements Tab

version 2
version 2

Whole song

Interactive

36,648 views 78 this week
no commentswrite comment
1 2 3 4 5
accurate
x 6
add to favorites
launch autoscroll
font size
0
reset
how to read this tab
guitar tuner
Autoscroll
slow
fast
+/-
esc
set tempo
stop
Help us to improve Ultimate-Guitar.com Take our survey!
×
Author
Difficulty
advanced
---------------------------------------------------------------------------
                             Chasing Pavements - Adele
---------------------------------------------------------------------------
Tabbed by: tom murphy

Tuning:standard

this is the acoustic version off youtube i think its 100%. i've tabbed the first bit 
with timing to the lyrics


    Cm         Cm/Bb         Cm                    Cm/Bb
e|-----------------------------------------------------------------------|
B|-------4-----------3------------------4---------------------------3----|
G|-----------------------------------------------------------------------|
D|----5----5-----5-------------------5-----5----------------5----------5-|
A|--3------------------------3-------------------------------------------|
E|------------6-------------------------------------6--------------------|
                        I've made up my mind, don't need to think it over

         G#                      G7
e|-------------------------------------------------------------|
B|-------------------------------------------------------------|
G|-------------------5--------------------------4--------------|
D|---------------3-----------------------3-------------3-------|
A|-------------------------------------------------------------|
E|-------4-----------------------3-----------------------------|
  If I'm wrong I am right, don't need to look no further


                G#                   Bb
e|-----------------------------------------6-------|
B|-----------------------------------------6-------|
G|-------------------------5---------------7-------|
D|---------------------3------3------------8-------|
A|-----------------------------------------8-------|
E|--------------4--------------------6-----6-------|
     This ain't lust,      I~~~~~~~~~know, this is

     Ebmaj7          Cm                 Gm
e|---------------6-------3-----3---6---------3-----|
B|------8--6--8---------4---6---------------3------|
G|-----7---------------5-------------------3-------|
D|----8---------------5-------------------5--------|
A|---6---------------3-------------------5---------|
E|--------------------------------------3----------|
     love...                            But


Ebmaj7                     Ebmaj7/D
If I tell the world, I'll never say enough
                       Cm
'Cause it was not said to you
              G            G7           G#      Bb
And that's exactly what I need to do if I, e-nd up, with you

Chorus:

G#               Gm    Cm     Fm          Gbass G#
Should I give up, or should I just keep chasing pavements
(G#maj7*    Gm*     G*)             - riff 1
Even if it leads nowhere
G#               Gm    Cm   Fm     Gbass G#
Or would it be a waste even if I knew my place
         (G#maj7*   G*)             - riff 2
Should I leave it there
G#               Gm    Cm     Fm          Gbass G#
Should I give up or should I just keep chasing pavements
(G#maj7*     G*            Ebmaj7)  - riff 3
Even if it leads nowhere, yeah



  Cm                  Cm/Bb                          G#maj7*sus
I build myself up and fly around in circles, waiting as my heart drops
       G               G7      G#               Bb
And my back begins to tingle finally, could this be, it or


Chorus


G#                             Gm
Should I give up, or should I just keep chasing pavements
Fm                Bb    Bb7
Even if, it leads nowhere
G#maj7*sus                        G
Or would it be a waste, even if I knew my place
                   F                Bbsus   Bb
Should I leave it there? Should I give up


            G#.        Gm.   Cm.     Fm.           G#.
Or should I just, keep on, chasing, pavements
          Gm7.     Cm.    Gm.      Fm.        G#.
Should I just keep on, chasing, pavements

G#   Bb
Or..


Chorus


************************************

riff 1:

     G#maj7*     Gm*      G*
e|---4-----------3-----3--3--------|
B|---4-----------3-----3--3--------|
G|---5-----------3-----3--h4-------|
D|---5-----------3-----3--3--------|
A|---*-----------*-----*--*--------|
E|---4-----------3-----3--3--------|
     Even if it  leads nowhere



riff 2:

     G#maj7*         G#maj7*sus     G*
e|---4---------------6--------------3-----4-p3----|
B|---4---------------4--------------3-----3--3----|
G|---5---------------5--------------4-----4--4----|
D|---5---------------5--------------3-----3--3----|
A|---*---------------*--------------*-----*--*----|
E|---4---------------4--------------3-----3--3----|
     Should I        leave it       there



riff 3:

     G#maj7*  G#maj7*sus     G*
e|---4--------6--------------3----------------|
B|---4--------4--------------3----------------|
G|---5--------5--------------4----------------|
D|---5--------5--------------3----------------|
A|---*--------*--------------*----------------|
E|---4--------4--------------3----------------|
     E----------------------------------------|ven   if it    leads nowhere


************************************

chords:

 G#maj7* G#maj7*sus  G*  Gm* Ebmaj7 Ebmaj7/D  Cm/Bb  Bbsus  Gm7  Gbass
e|--4-------6--------3----3---------------------3------6-----3--------|
B|--4-------4--------3----3----8-------8--------3------6-----3--------|
G|--5-------5--------4----3----7-------7--------3------8-----3--------|
D|--5-------5--------3----3----8-------8--------5------6-----3--------|
A|--*-------*--------*----*----6-------5---------------8-----5--------|
E|--4-------4--------3----3---------------------6------6-----3-----3--|

the * above means you need to deaden the string with your thumb. this will take some 
practice to get it sounding right

all chords throughout are barre chords

************************************

| /   slide up
| \   slide down
| h   hammer-on
| p   pull-off
| ~   vibrato
| +   harmonic
| x   Mute note
| b   Bend
| pb  Pre-bend
| br  Bend release
| pbr Pre-bend release
| brb Bend release bend

************************************
Suggest correction
What's this?
You can suggest a correction to this tab. Community and Mods will review your correction and vote to approve or reject it.
comments
print report bad tab
guest
You may want to rate the tab now too:
select rating
Please do not post tabs as comments. Select "correction" instead!