Oops, an error
Loading. Please wait.

Daydreamer Tab

version 1
version 1

Whole song

Interactive

Video

259,334 views 297 this week
6 commentsread comments
1 2 3 4 5
x 122
add to favorites
launch autoscroll
font size
0
reset
how to read this tab
guitar tuner
Autoscroll
slow
fast
+/-
esc
set tempo
stop
Help us to improve Ultimate-Guitar.com Take our survey!
×
Difficulty
novice
Adele - Daydreamer
Tabbed By - D.Leung

This is my first tab.  Hopefully as I get better at the guitar I can post some more.
I was watching a live performance and I’m 99% sure that this is correct.


[Verse]

e|-------------------------------------4-------4-------4-------4--------|
B|---5-------5-------5-------5-----------5-------5-------5-------5------|
G|-----6-------6-------6-------6----------------------------------------|
D|-----------------------------------0-----0-0-----0-0-----0-0----------|
A|-0-----0-0-----0-0------0-0-------------------------------------------|
E|----------------------------------------------------------------------|


[Pre Chorus]

e------------------          -------|
A---5-----------5--         --5-----|
D-----6-------6----         --6-----|
G-----------0------ (x4) --0--------| (x1)
B-0-----0-0--------         --0-----|
E------------------          -------|


[Chorus]

e--2--------         --4------------|
B----3------         ----5----------|
G------4---- (x5) ------6-----------| (x5)
D-----------         ---------------|
A-----------         ---------------|
E-----------          --------------|
Suggest correction
comments
print report bad tab
6 comments total. Showing first comments.
0 reply
mutje 10 Apr 01, 2008 08:02 AM

Thanks dude! Like it

+9 reply
Am0911 136 May 26, 2008 08:25 PM

only thing that would make it 100% right, it adding a bass note during the chorus.
so it would be like this.

e--2-------- --4------------|
B----3------ ----5----------|
G------4---- (x5) ---6-----------| (x5)
D----------- ---------------|
A----------- --0------------|
E-0--------- ---------------|

0 reply
autogav 113 Aug 07, 2008 12:47 PM

No need for the correction, perfect.

guest
You may want to rate the tab now too:
select rating
Wanna post a correction for this tab? Suggest correction