Oops, an error
Loading. Please wait.

Daydreamer Ukulele Chords

version 3
version 3

Whole song

  • Gives a tab for finger picking on ukulele rather than just chords.

Interactive

10 views 3 this week
no commentswrite comment
1 2 3 4 5
3 more votes to show rating
add to favorites
launch autoscroll
font size
0
reset
transpose
0
reset
display chords
guitar tuner
Autoscroll
slow
fast
+/-
esc
set tempo
stop
Help us to improve Ultimate-Guitar.com Take our survey!
×
Author
Difficulty
intermediate
About this tab version
Gives a tab for finger picking on ukulele rather than just chords. Was this info helpful? Yes No
Tuning
A string=A
E string=D
C string=A (1 octave lower than A string)
g string=F#

[Verse]

              Pattern 1                            Pattern 2
A |---7-------7-------7-------7----|----11------11------11------11--------|
D |--------------------------------|---0-----0-0-----0-0-----0-0----------|
A |-0-----0-0-----0-0------0-0-----|--------------------------------------|
F#|-----7-------7-------7-------7--|-------10------10------10------10-----|



[Pre Chorus]

A |---7-----------7--------|
D |-----------0------------|
A |-0-----0-0--------------|
F#|-----7-------7----------|


[Chorus]

   Pattern 1   Pattern 2
A |----------|--------------|
D |----0-----|-----2--------|
A |------2---|-------4------|
F#|--0-------|---2----------|


*Repeat each pattern as necessary
**this is just the basic patterns, the order of notes may need to be manipulated during transitions
Suggest correction
Give kudos to tab author, rate the tab!
1 2 3 4 5
comments
print report bad tab
guest
You may want to rate the tab now too:
select rating
Wanna post a correction for this tab? Suggest correction