Oops, an error
Loading. Please wait.

Hiding My Heart Chords

version 5
version 5

Interactive

82,336 views 189 this week
no commentswrite comment
1 2 3 4 5
excellent!
x 19
add to favorites
launch autoscroll
font size
0
reset
transpose
0
reset
simplify chords
display chords
guitar tuner
Autoscroll
slow
fast
+/-
esc
set tempo
stop
Help us to improve Ultimate-Guitar.com Take our survey!
×
Author
Difficulty
Capo
novice
4th fret
-------------------------------------------------------------------------------
                            HIDING MY HEART - Adele
-------------------------------------------------------------------------------

Tabbed by: Macheeoo
Email: macheeoo@yahoo.com

Tuning: Standard CAPO IV


[Intro Riff]

    G        Cadd9   G     Cadd9
e|------------3~------------3~----|
B|--------0~--0~--------0~--0~----|
G|-------0~---0~-------0~---0~----|
D|------0~----2~------0~----2~----|
A|-----2~-----3~-----2~-----3~----|
E|---3-------------3--------------|    x2


[Verse]

G               Cadd9
This is how the story went
  Em              D/F#
I met someone by accident
    C           G
who blew me away
    C           D/F#
who blew me away

       G              D/F#
It was in the darkest of my days
         Em                     D
When you took my sorrow and you took my pain
    C              G
And buried them away
    C               D/F#
you buried them away


[Chorus]

      Am               D       
And I wish I could lay down beside you
G               Em
When the day is done
     Am             D                 Em Esus2 Em
And wake up to your face against the morning sun
         Am              D
But like everything I've ever known
       G             Em
you'll disappear one day
        Am                  D               
So I'll spend my whole life hiding my heart 
G   Cadd9   G   Cadd9
away


[Instrumental]

    G        Cadd9   G     Cadd9
e|------------3~------------3~----|
B|--------0~--0~--------0~--0~----|
G|-------0~---0~-------0~---0~----|
D|------0~----2~------0~----2~----|
A|-----2~-----3~-----2~-----3~----|
E|---3-------------3--------------|    x2


[Verse]

  G                       Cadd9
I dropped you off at the train station
  Em              D/F#         
And put a kiss on top of your head
  C               G
I watched you wave
  C               D/F#
I watched you wave

       G                   D/F#
Then I went on home to my skyscrapers and
Em               D
Neon lights and waiting papers
     C          G
That I call home
   C            D/F#
I call that home


[Chorus]

I wish I could lay down beside you
When the day is done
And wake up to your face against the morning sun
But like everything I've ever known
You'll disappear one day
So I'll spend my whole life hiding my heart away
Away


[Instrumental]

    G        Cadd9   G     Cadd9
e|------------3~------------3~----|
B|--------0~--0~--------0~--0~----|
G|-------0~---0~-------0~---0~----|
D|------0~----2~------0~----2~----|
A|-----2~-----3~-----2~-----3~----|
E|---3-------------3--------------|    x2


[Verse]

I woke up feeling heavy hearted
I'm going back to where I started
The morning rain
The morning rain
And though I wish that you were here
On that same old road that brought me here
Is calling me home
Is calling me home


[Chorus]

I wish I could lay down beside you
When the day is done
And wake up to your face against the morning sun
But like everything I've ever known
You'll disappear someday
So I'll spend my whole life hiding my heart away
I can't spend my whole life hiding my heart 
away


[Outro]

    G        Cadd9   G     Cadd9
e|------------3~------------3~----|
B|--------0~--0~--------0~--0~----|
G|-------0~---0~-------0~---0~----|
D|------0~----2~------0~----2~----|
A|-----2~-----3~-----2~-----3~----|
E|---3-------------3--------------|    x2
Suggest correction
What's this?
You can suggest a correction to this tab. Community and Mods will review your correction and vote to approve or reject it.
comments
print report bad tab
guest
You may want to rate the tab now too:
select rating
Please do not post tabs as comments. Select "correction" instead!