Oops, an error
Loading. Please wait.

Hometown Glory Tab

version 5
version 5

Whole song

Interactive

703 views 1 this week
no commentswrite comment
1 2 3 4 5
2 more votes to show rating
add to favorites
launch autoscroll
font size
0
reset
how to read this tab
guitar tuner
Autoscroll
slow
fast
+/-
esc
set tempo
stop
Help us to improve Ultimate-Guitar.com Take our survey!
×
Author
Difficulty
Capo
novice
7th fret
Hometown Glory
By: Adele
Capo on 7th

Tempo: 121bpm - 1/4 notes 
Play Style: Finger Picked
g - ghost note
> - accentuated note




Capo on 7th
Guitar 1: Main Chorus

E ||---------------------------|----------------------------|
B ||-4>----4-----4-----4-------|--2>----2-----2-----2-------|
G ||----3-----3-----3-----3----|-----3-----3-----3-----3----|
D ||-4-----4-----4-----4-------|--4-----4-----4-----4-------|
A ||---------------------------|----------------------------|
E ||---------------------------|----------------------------|


----------------------------|---------------------------||
--2>----2-----2-----2-------|--0-----0-----0-----0------||
-----3-----3-----3-----3----|-----3>----3>----3-----3>--||
--4-----4-----4-----4-------|--4--1--4--1--4--1--4--1---||
----------------------------|---------------------------||
----------------------------|---------------------------||


Guitar 1: Main Chorus Alternate Ending played before "Around my Hometown.."
----------------------------|----------------------------|
--4>----4-----4-----4-------|--2>----2-----2-----2-------|
-----3-----3-----3-----3----|-----3-----3-----3-----3----|
--4-----4-----4-----4-------|--4-----4-----4-----4-------|
----------------------------|----------------------------|
----------------------------|----------------------------|


----------------------------|----------------------------||
--2>----2-----2-----2-------|----------------------------||
-----3-----3-----3----------|----------3-----------------||
--4-----4-----4-----4-------|----------------------------||
----------------------------|----------------------------||
----------------------------|----------------------------||


Guitar 2: Main Bass line(can be played on a guitar by moving to E chord 6th fret.

G ||----10---|-----8----|-----5----|-----6---|
D ||-8--8----|--6--6----|--3--3----|--4--4---|
A ||---------|----------|----------|---------|
E ||---------|----------|----------|---------|

Guitar 1: Played twice
The change up of the main Chorus played during, "Show's 'em  we ain't" part.
It's a bit tricky, but entirely doable. 
Would love to hear recommendations.

E ||--11-9--11-9--11-9--11-9----|--9--7--9--7--9--7--9--7----|
B ||--7-----------7-------------|--7-----------7-------------|
G ||-----8-----8-----8-----8----|-----6-----6-----6-----6----|
D ||----------------------------|----------------------------|
A ||----------------------------|----------------------------|
E ||----------------------------|----------------------------|


--9--7--9--7--9--7--9--7----|--7--6--7--6--7--6--7--6----|
--7-----------7-------------|--7-----------7-------------|
-----6-----6-----6-----6----|-----8-----8-----8-----8----|
----------------------------|----------------------------|
----------------------------|----------------------------|
----------------------------|----------------------------|


--11-9--11-9--11-9--11-9----|--9--7--9--7--9--7--9--7----|
--7-----------7-------------|--7-----------7-------------|
-----8-----8-----8-----8----|-----6-----6-----6-----6----|
----------------------------|----------------------------|
----------------------------|----------------------------|
----------------------------|----------------------------|


--9--7--9--7--9--7--9--7----|--7--6--7-----7-----7-------|
--7-----------7-------------|--7-------------------------|
-----6-----6-----6-----6----|-----8-----8-----8-----8----|
----------------------------|----------------------------|
----------------------------|----------------------------|
----------------------------|----------------------------|


Guitar 2: Played Twice
Altered Bass line played along with the above Guitar change up

G ||-----10g--|-----8g---|-----5g---|-----6g---|
D ||--8-------|--6-------|--3-------|--4-------|
A ||----------|----------|----------|----------|
E ||----------|----------|----------|----------|

-----10g--|-----8g---|----------|-----------|
--8-------|--6-------|--3--3g---|--4g-------|
----------|----------|----------|-----------|
----------|----------|----------|-----------|

 
Guitar 2: Played Twice
Towards the end the bass line changes and is played
during, "All the Wonder of my.." part.

G ||----12---|-----10---|-----5----|-----6---||
D ||-8--10---|--6--8----|--3--3----|--4--4---||
A ||---------|----------|----------|---------||
E ||---------|----------|----------|---------||
Suggest correction
Give kudos to tab author, rate the tab!
1 2 3 4 5
comments
print report bad tab
guest
You may want to rate the tab now too:
select rating
Wanna post a correction for this tab? Suggest correction