Oops, an error
Loading. Please wait.
We have Chord Pro version of Million Years Ago.
It's the closest thing you can get to the original song and it has interactive parts. Check out the tab »
×
by Adele
3,130 views 33 this week
no commentswrite comment
1 2 3 4 5
x 4
add to favorites
×
Save as Personal and add changes to this tab that will be seen only by you. Learn more ›
×
You can save this tab as Personal to edit and correct it or add notes. All changes will be seen only by you. Learn more »
launch autoscroll
font size
0
reset
how to read this tab
guitar tuner
edit
Autoscroll
slow
fast
+/-
esc
set tempo
stop
-------------------------------------------------------------------------------
                             MILLION YEARS AGO - Adele
-------------------------------------------------------------------------------
Tabbed by: Ryan
E-mail: ryans_rinksters@yahoo.com

Standard Tuning:
Capo II


    Bm   A   Em/G  F#m7
E||----------------------|
B||--3----2--------------|
G||------------4----2----|
D||--4----2----2----2----|
A||--2----0--------------|
E||------------3----2----|

           I only   wan-      ted   to  have fun        Lear-    ning  to  fly     lear- 
 ning to run
  Bm                 Em7                               A7                         Dmaj7
--------------------------|--------------------------|--------------------------|-----------2--------------|
--3-----------------------|-----------0--------------|-----------2--------------|-----2-----------2-----2--|
--4-----------------------|-----0-----------0-----0--|-----0-----------0-----0--|--------2-----------2-----|
--4-----------------------|--------0-----------0-----|--------2-----------2-----|--0-----------------------|
--2-----------------------|--------------------------|--0-----------------------|--------------------------|
--------------------------|--0-----------------------|--------------------------|--------------------------|

        I        let  my  heart      de- cide the way       When      I     was  young.
Gadd2                            Em                            F#7                       
  Bm7
--------------------------|--------------------------|--------------------------|--------------------------|
-----------0--------------|-----------0--------------|-----------2--------------|-----------3--------------|
-----2-----------2-----2--|-----0-----------0-----0--|-----3-----------3-----3--|-----2-----------2-----2--|
--------0-----------0-----|--------2-----------2-----|--------2-----------2-----|--------4-----------4-----|
--------------------------|--------------------------|--------------------------|--2-----------------------|
--3-----------------------|--0-----------------------|--2-----------------------|--------------------------|

        Deep down   I       must    have always known             That this would        
 be      in ev’tible
Bm7           B7           Em7                               A7                         Dmaj7
--------------------------|--------------------------|--------------------------|-----------2--------------|
--------3-----------4-----|-----------0--------------|-----------2--------------|-----2-----------2-----2--|
-----------2-----------2--|-----0-----------0-----0--|-----0-----------0-----0--|--------2-----------2-----|
-----4-----------4--------|--------0-----------0-----|--------2-----------2-----|--0-----------------------|
--2-----------2-----------|--------------------------|--0-----------------------|--------------------------|
--------------------------|--0-----------------------|--------------------------|--------------------------|

       To      earn    my  stripes    I’d  have to pay         And    bare     my
Gadd2                      Em                                F#7
--------------------------|--------------------------|--------------------------|
-----------0--------------|-----------0--------------|-----------2--------------|
-----2-----------2-----2--|-----0-----------0-----0--|-----3-----------3-----3--|
--------0-----------0-----|--------2-----------2-----|--------2-----------2-----|
--------------------------|--------------------------|--------------------------|
--3-----------------------|--0-----------------------|--2-----------------------|

 soul.
 Bm                   Bm7       A             Gadd2         Bm                   Bm7  A  
           Gadd2
--------------------------|--------------------------|--------------------------|--------------------------|
--------3--------3--------|--------2-----------0-----|--------3--------3--------|--------2-----------0-----|
--------4--------4--------|--------2-----------2-----|--------4--------4--------|--------2-----------2-----|
----4--------4--------4---|-----2-----2-----0-----0--|----4--------4--------4---|-----2-----2-----0-----0--|
--2--------2--------2-----|--0-----------------------|--2--------2--------2-----|--0-----------------------|
--------------------------|--------------3-----------|--------------------------|--------------3-----------|

                                                                                         
        I know I’m
 Bm                   Bm7  A             Gadd2            F#7
--------------------------|--------------------------|--------------------------|---------------------------|
--------3--------3--------|--------2-----------0-----|--------2--------2--------|--------2--------2---------|
--------4--------4--------|--------2-----------2-----|--------3--------3--------|--------3--------3---------|
----4--------4--------4---|-----2-----2-----0-----0--|-----2--------2--------2--|-----2--------2--------2---|
--2--------2--------2-----|--0-----------------------|--------------------------|---------------------------|
--------------------------|--------------3-----------|--2--------2--------2-----|--2--------2--------2------|

  not      the   only one                who    re -        grets   the  things 
they’ve done
                   Em                 A7                         Dmaj7
--------------------------|--------------------------|-----------2--------------|
-----------0--------------|-----------2--------------|-----2-----------2-----2--|
-----0-----------0-----0--|-----0-----------0-----0--|--------2-----------2-----|
--------0-----------0-----|--------2-----------2-----|--0-----------------------|
--------------------------|--0-----------------------|--------------------------|
--0-----------------------|--------------------------|--------------------------|

      Sometimes I          feel     it’s   only   me        Who can’t stand the re 
flec   - tion  that they

Gadd2                      Em                                F#7                         Bm7
--------------------------|--------------------------|--------------------------|--------------------------|
-----------0--------------|-----------0--------------|-----------2--------------|-----------3--------------|
-----2-----------2-----2--|-----0-----------0-----0--|-----3-----------3-----3--|-----2-----------2-----2--|
--------0-----------0-----|--------2-----------2-----|--------2-----------2-----|--------4-----------4-----|
--------------------------|--------------------------|--------------------------|--2-----------------------|
--3-----------------------|--0-----------------------|--2-----------------------|--------------------------|

 see.  I     wish   I could       live  a little more      Lookup at the         sky     
  not  just the floor
Bm7           B7           Em7                             A7                         Dmaj7
--------------------------|--------------------------|--------------------------|-----------2--------------|
--------3-----------4-----|-----------0--------------|-----------2--------------|-----2-----------2-----2--|
-----------2-----------2--|-----0-----------0-----0--|-----0-----------0-----0--|--------2-----------2-----|
-----4-----------4--------|--------0-----------0-----|--------2-----------2-----|--0-----------------------|
--2-----------2-----------|--------------------------|--0-----------------------|--------------------------|
--------------------------|--0-----------------------|--------------------------|--------------------------|

        I feel   my         life     is    flashing by        All I     can          do  
  is watch and
Gadd2                      Em                             F#7                         Bm7
--------------------------|--------------------------|--------------------------|--------------------------|
-----------0--------------|-----------0--------------|-----------2--------------|-----------3--------------|
-----2-----------2-----2--|-----0-----------0-----0--|-----3-----------3-----3--|-----2-----------2-----2--|
--------0-----------0-----|--------2-----------2-----|--------2-----------2-----|--------4-----------4-----|
--------------------------|--------------------------|--------------------------|--2-----------------------|
--3-----------------------|--0-----------------------|--2-----------------------|--------------------------|

   cry.          I miss the air      I    miss my friends     I miss my            
mother   I    miss it when
  Bm7           B7           Em7                          A7                         Dmaj7
--------------------------|--------------------------|--------------------------|-----------2--------------|
--------3-----------4-----|-----------0--------------|-----------2--------------|-----2-----------2-----2--|
-----------2-----------2--|-----0-----------0-----0--|-----0-----------0-----0--|--------2-----------2-----|
-----4-----------4--------|--------0-----------0-----|--------2-----------2-----|--0-----------------------|
--2-----------2-----------|--------------------------|--0-----------------------|--------------------------|
--------------------------|--0-----------------------|--------------------------|--------------------------|

      Life was a          party           to be thrown           But that was a
Gadd2                      Em                             F#7
--------------------------|--------------------------|--------------------------|
-----------0--------------|-----------0--------------|-----------2--------------|
-----2-----------2-----2--|-----0-----------0-----0--|-----3-----------3-----3--|
--------0-----------0-----|--------2-----------2-----|--------2-----------2-----|
--------------------------|--------------------------|--------------------------|
--3-----------------------|--0-----------------------|--2-----------------------|

   mill-ion years a-         go.
    Bm   A   Em/G  F#m7      Bm                         Bm   A   Em/G  F#m7        Bm
--------------------------|--------------------------|--------------------------|--------------------------|
--3----2------------------|--3-----------------------|--3----2------------------|--3-----------------------|
------------4----2--------|--4-----------------------|------------4----2--------|--4-----------------------|
--4----2----2----2--------|--4-----------------------|--4----2----2----2--------|--4-----------------------|
--2----0------------------|--2-----------------------|--2----0------------------|--2-----------------------|
------------3----2--------|--------------------------|------------3----2--------|--------------------------|

       When I walk        around    all of the streets      Where I       grew   up      
and  found my feet
                             Em7                         A7                         Dmaj7
--------------------------|--------------------------|--------------------------|-----------2--------------|
--------------------------|-----------0--------------|-----------2--------------|-----2-----------2-----2--|
--------------------------|-----0-----------0-----0--|-----0-----------0-----0--|--------2-----------2-----|
--------------------------|--------0-----------0-----|--------2-----------2-----|--0-----------------------|
--------------------------|--------------------------|--0-----------------------|--------------------------|
--------------------------|--0-----------------------|--------------------------|--------------------------|

                 They can’t  look      me in the eye       It’s     like   they’re 
scared            of
Gadd2                      Em                           F#7                         Bm7
--------------------------|--------------------------|--------------------------|--------------------------|
-----------0--------------|-----------0--------------|-----------2--------------|-----------3--------------|
-----2-----------2-----2--|-----0-----------0-----0--|-----3-----------3-----3--|-----2-----------2-----2--|
--------0-----------0-----|--------2-----------2-----|--------2-----------2-----|--------4-----------4-----|
--------------------------|--------------------------|--------------------------|--2-----------------------|
--3-----------------------|--0-----------------------|--2-----------------------|--------------------------|

   me.       I   try to    think of     things to say          Like    a             
joke or       memory
Bm7           B7           Em7                           A7                         Dmaj7
--------------------------|--------------------------|--------------------------|-----------2--------------|
--------3-----------4-----|-----------0--------------|-----------2--------------|-----2-----------2-----2--|
-----------2-----------2--|-----0-----------0-----0--|-----0-----------0-----0--|--------2-----------2-----|
-----4-----------4--------|--------0-----------0-----|--------2-----------2-----|--0-----------------------|
--2-----------2-----------|--------------------------|--0-----------------------|--------------------------|
--------------------------|--0-----------------------|--------------------------|--------------------------|

           They don’t      re-cog    -    nize me now            In the     light of
Gadd2                      Em                            F#7
--------------------------|--------------------------|--------------------------|
-----------0--------------|-----------0--------------|-----------2--------------|
-----2-----------2-----2--|-----0-----------0-----0--|-----3-----------3-----3--|
--------0-----------0-----|--------2-----------2-----|--------2-----------2-----|
--------------------------|--------------------------|--------------------------|
--3-----------------------|--0-----------------------|--2-----------------------|

 day.
 Bm                   Bm7  A             Gadd2         Bm                   Bm7  A       
      Gadd2
--------------------------|--------------------------|--------------------------|--------------------------|
--------3--------3--------|--------2-----------0-----|--------3--------3--------|--------2-----------0-----|
--------4--------4--------|--------2-----------2-----|--------4--------4--------|--------2-----------2-----|
-----4--------4--------4--|-----2-----2-----0-----0--|-----4--------4--------4--|-----2-----2-----0-----0--|
--2--------2--------2-----|--0-----------------------|--2--------2--------2-----|--0-----------------------|
--------------------------|--------------3-----------|--------------------------|--------------3-----------|

                                                                                         
     I know I’m
 Bm                   Bm7  A             Gadd2           F#7
--------------------------|--------------------------|-------------------------|---------------------------|
--------3--------3--------|--------2-----------0-----|-------2--------2--------|--------2--------2---------|
--------4--------4--------|--------2-----------2-----|-------3--------3--------|--------3--------3---------|
-----4--------4--------4--|-----2-----2-----0-----0--|----2--------2--------2--|-----2--------2--------2---|
--2--------2--------2-----|--0-----------------------|-------------------------|---------------------------|
--------------------------|--------------3-----------|-2--------2--------2-----|--2--------2--------2------|

  not      the    only one         who    re -        grets   the  things they’ve done
                   Em            A7                         Dmaj7
|--------------------------|-------------------------|-----------2--------------|
|-----------0--------------|----------2--------------|-----2-----------2-----2--|
|-----0-----------0-----0--|----0-----------0-----0--|--------2-----------2-----|
|--------0-----------0-----|-------2-----------2-----|--0-----------------------|
|--------------------------|-0-----------------------|--------------------------|
|--0-----------------------|-------------------------|--------------------------|

      Sometimes I  just    feel     it’s   only  me           Who ne’re be -   came  
who they thought they’d
Gadd2                      Em                           F#7                         Bm7
--------------------------|--------------------------|--------------------------|--------------------------|
-----------0--------------|-----------0--------------|-----------2--------------|-----------3--------------|
-----2-----------2-----2--|-----0-----------0-----0--|-----3-----------3-----3--|-----2-----------2-----2--|
--------0-----------0-----|--------2-----------2-----|--------2-----------2-----|--------4-----------4-----|
--------------------------|--------------------------|--------------------------|--2-----------------------|
--3-----------------------|--0-----------------------|--2-----------------------|--------------------------|

 be.  I     wish   I could    live    a little more        Lookup at the         sky     
  not  just the floor
Bm7           B7           Em7                           A7                         Dmaj7
--------------------------|--------------------------|--------------------------|-----------2--------------|
--------3-----------4-----|-----------0--------------|-----------2--------------|-----2-----------2-----2--|
-----------2-----------2--|-----0-----------0-----0--|-----0-----------0-----0--|--------2-----------2-----|
-----4-----------4--------|--------0-----------0-----|--------2-----------2-----|--0-----------------------|
--2-----------2-----------|--------------------------|--0-----------------------|--------------------------|
--------------------------|--0-----------------------|--------------------------|--------------------------|

        I feel  like  my     life     is    flashing by   All I     can          do      
     is  watch and
Gadd2                      Em                           F#7                         Bm7
--------------------------|--------------------------|--------------------------|--------------------------|
-----------0--------------|-----------0--------------|-----------2--------------|-----------3--------------|
-----2-----------2-----2--|-----0-----------0-----0--|-----3-----------3-----3--|-----2-----------2-----2--|
--------0-----------0-----|--------2-----------2-----|--------2-----------2-----|--------4-----------4-----|
--------------------------|--------------------------|--------------------------|--2-----------------------|
--3-----------------------|--0-----------------------|--2-----------------------|--------------------------|

   cry.  I miss the           air   I    miss my friends     I miss my      mo-     ther 
  I    miss it when
Bm7           B7           Em7                            A7                         Dmaj7
--------------------------|--------------------------|--------------------------|-----------2--------------|
--------3-----------4-----|-----------0--------------|-----------2--------------|-----2-----------2-----2--|
-----------2-----------2--|-----0-----------0-----0--|-----0-----------0-----0--|--------2-----------2-----|
-----4-----------4--------|--------0-----------0-----|--------2-----------2-----|--0-----------------------|
--2-----------2-----------|--------------------------|--0-----------------------|--------------------------|
--------------------------|--0-----------------------|--------------------------|--------------------------|

      Life was a          party           to be thrown          But that was
Gadd2                      Em                           F#7
--------------------------|--------------------------|--------------------------|
-----------0--------------|-----------0--------------|-----------2--------------|
-----2-----------2-----2--|-----0-----------0-----0--|-----3-----------3-----3--|
--------0-----------0-----|--------2-----------2-----|--------2-----------2-----|
--------------------------|--------------------------|--------------------------|
--3-----------------------|--0-----------------------|--2-----------------------|

a  mill ion years a-          go.
    Bm   A   Em/G  F#m7       Bm
--------------------------|-------------------|
------3----2--------------|--3----------------|
----------------4----2----|--4----------------|
------4----2----2----2----|--4----------------|
------2----0--------------|--2----------------|
----------------3----2----|-------------------|

 A mill ion years a-          go.
    Bm   A   Em/G  F#m7      Bm
--------------------------|-------------------|
------3----2--------------|--3----------------|
----------------4----2----|--4----------------|
------4----2----2----2----|--4----------------|
------2----0--------------|--2----------------|
----------------3----2----|-------------------|

            
            
Suggest correction
Creating personal tab
Creating personal tab
You can edit any tab online and save it as your Personal.

You can edit, replace or remove any tab part or add personal notes – all changes will be seen only by you.

Personal tabs can be accessed anytime from any device, even offline.
Learn more »
comments
print report bad tab
guest
You may want to rate the tab now too:
select rating
Wanna post a correction for this tab? Suggest correction