Oops, an error
Loading. Please wait.

My Same Tab

version 2
version 2

Whole song

2,327 views 12 this week
no commentswrite comment
1 2 3 4 5
excellent!
x 6
add to favorites
launch autoscroll
font size
0
reset
how to read this tab
guitar tuner
Tab Pro tools
  • play this tab
  • loop segment
  • change instrument
  • show fretboard
  • metronome
×
Best way to learn
"My Same"
Autoscroll
slow
fast
+/-
esc
set tempo
stop
Contributor
Difficulty
novice
Hey guys :) I really wanted to know how to play this song, so I looked up on here to 
find a tab and found out that there are some but they aren't the greatest.

I then went onto Youtube and found a video of Adele playing it live and after an hour of 
studying it, I finally came up with a tab :) hope you like it :)

this is my first tab as well but it sounds pretty accurate Lol :D
Standard tuning and very easy to play, all you have to do is listen to the song for 
timing :)

Good Luck :)

Intro:X4 (x means you have to slap the with your hand)

e|-----x-----x-----x-----x---|
B|----8x----7x----7x----8x---|
G|-----x-----x-----x-----x---|
D|-----x-----x-----x-----x---|
A|---7-x---5-x---6-x---7-x---|
E|-----x-----x-----x-----x---|

Aye, aye, aye, aye

Verse:X9
e|-----x-----x-----x-----x---|
B|----8x----7x----7x----8x---|
G|-----x-----x-----x-----x---|
D|-----x-----x-----x-----x---|
A|---7-x---5-x---6-x---7-x---|
E|-----x-----x-----x-----x---|

You said I'm stubborn and I never give in
I think you're stubborn 'cept you're always softening
You say I'm selfish, I agree with you on that
I think you're giving, I think way too much in fact
I say we've only known each other a year
You say "pfft, I've known you longer my dear"
You like to be so close, I like to be alone
I like to sit on chairs and you prefer the floor
Walking with each other, think we'll never match at all,

chorus:

But we do, but we do, but we do
e|-----x-----x-----x-----x---|-----x-----x-----x-----x----|
B|----8x----7x----6x----5x---|----8x----7x----7x----8x----|
G|-----x-----x-----x-----x---|-----x-----x-----x-----x----|
D|-----x-----x-----x-----x---|-----x-----x-----x-----x----|
A|---7-x---6-x---5-x---4-x---|---7-x---5-x---6-x---7-x---3|
E|-----x-----x-----x-----x---|-----x-----x-----x-----x----|

Verse 2:X7
e|-----x-----x-----x-----x---|
B|----8x----7x----7x----8x---|
G|-----x-----x-----x-----x---|
D|-----x-----x-----x-----x---|
A|---7-x---5-x---6-x---7-x---|
E|-----x-----x-----x-----x---|

I thought I knew myself, somehow you know me more
I've never known this, never before
You're the first to make up whenever we argue
I don't know who I'd be if I didn't know you
You're so provocative, I'm so conservative
You're so adventurous, I'm so very cautious,
combining, You'd think we wouldn't,

Chorus:
we do, but we do, but we do, but we do
e|-----x-----x-----x-----x---|-----x-----x-----x-----x----|
B|----8x----7x----6x----5x---|----8x----7x----7x----8x----|
G|-----x-----x-----x-----x---|-----x-----x-----x-----x----|
D|-----x-----x-----x-----x---|-----x-----x-----x-----x----|
A|---7-x---6-x---5-x---4-x---|---7-x---5-x---6-x---7-x---3|
E|-----x-----x-----x-----x---|-----x-----x-----x-----x----|

Bridge: X8 + Silence.
e|-----x-----x-----x-----x---|
B|----8x----7x----7x----8x---|
G|-----x-----x-----x-----x---|
D|-----x-----x-----x-----x---|
A|---7-x---5-x---6-x---7-x---|
E|-----x-----x-----x-----x---|

(Some vocal gymnastics then silence, clicking..whatever you like really)

Favouritism ain't my thing but,
In this situation I'll be glad...

Favouritism ain't my thing but,
In this situation I'll be glad to make an exception

Verse 3:X9
e|-----x-----x-----x-----x---|
B|----8x----7x----7x----8x---|
G|-----x-----x-----x-----x---|
D|-----x-----x-----x-----x---|
A|---7-x---5-x---6-x---7-x---|
E|-----x-----x-----x-----x---|

You said I'm stubborn and I never give in,
I think you're stubborn 'cept you're always softening
You say I'm selfish, I agree with you on that
I think you're giving, I think way too much in fact
I say we've only known each other a year
You say "pfft, I've known you longer my dear"
You like to be so close, I like to be alone
I like to sit on chairs and you prefer the floor
Walking with each other, think we'll never match at all

Chorus:
But we do...
e|-----x-----x-----x-----x---|
B|----8x----7x----6x----5x---|
G|-----x-----x-----x-----x---|
D|-----x-----x-----x-----x---|
A|---7-x---6-x---5-x---4-x---|
E|-----x-----x-----x-----x---|
comments
print report bad tab
I want to post or [tab]
guest
You may want to rate the tab now too:
select rating
Please do not post tabs as comments. Select "correction" instead!