Oops, an error
Loading. Please wait.

Right As Rain Chords

version 6
version 6
by Adele
3,684 views 15 this week
no commentswrite comment
1 2 3 4 5
x 4
add to favorites
launch autoscroll
font size
0
reset
transpose
0
reset
simplify chords
display chords
guitar tuner
×
Best way to learn
"Right As Rain"
Autoscroll
slow
fast
+/-
esc
set tempo
stop
Author
Difficulty
intermediate
Right As Rain
Adele

I have to give a lot of the credit to allegrakatia for this tab.
I thought there were a few too many changes to just make a correction
so I decided to make my own file.

I transposed the chords up so a capo isn't needed and I changed 
most of the chords in the pre-chorus and chorus.  I also tabbed 
out the chords in certain spots where I think it matters what position
of the chord is used.  I hope you enjoy this great song by Adele! 


Intro and Verse:

   G#m7                         Fmaj7
|----------------------------------------------------|
|------12-----------12-----------11---------11-------|
|------11-----------11-----------10---------10-------|
|------13-----------13-----------11---------11-------|
|--11------11--11--------10--9-------9--9--------10--|
|----------------------------------------------------|


Verse 1:
         G#m7              F#maj7
Who wants to be right as rain
         G#m7              F#maj7
It's better when something is wrong
         G#m7              F#maj7
You get excitement in your bones
         G#m7              F#maj7
And everything you do's a game
         G#m7              F#maj7
When night comes and you're on your own
         G#m7              F#maj7
You can say  I chose to be alone
         G#m7              F#maj7
Who wants to be right as rain
         G#m7              F#maj7
It's harder when you're on top

Pre-chorus:
            C#                                 D
'Cause when hard work don't pay off and I'm tired, there ain't...
|----------------------------------------------------------------|
|---------6-------------------------------------7----------------|
|---------6-------------------------------------7----------------|
|---------6-------------------------------------7----------------|
|---------4--/--/--/--/--/--/--/--/--/----------5--/--/--/-------|
|----------------------------------------------------------------|


Chorus:  (The rhythm here is pretty much the same as the verse. The transition notes 
          can be added as well between the Bbm7's and G#m7's )

   G#m7                    Bbm7                       G#m7             Bbm7              
      No room in my bed, as far as I'm concerned  so wipe that dirty smile off, we
|---------------------------------------------------------------------------------------|
|--4------------------------6--------------------------4----------------6---------------|
|--4------------------------6--------------------------4----------------6---------------|
|--4------------------------6--------------------------4----------------6---------------|
|--6------------------------8--------------------------6----------------8---------------|
|--4------------------------6--------------------------4----------------6---------------|   
      

G#m7                      Bbm7                 G#m7                Bbm7    Adim   G#m7
  Won't be making up, I've cried my heart out   And now I've had enough    of    love 
|---------------------------------------------------------------------------------------|
|--4------------------------6--------------------4-------------------6-------------4----|
|--4------------------------6--------------------4-------------------6-----5-------4----|
|--4------------------------6--------------------4-------------------6-----7-------4----|
|--6------------------------8--------------------6-------------------8-----6-------6----|
|--4------------------------6--------------------4-------------------6-----5-------4----|   


Verse 2:
Who wants to be riding high
When you just crumble back on down
You give up everything you are
And even then you don't get far
They make believe that everything
Is exactly what it seems
But at least when you're at your worst
You know how to feel things

Pre-chorus:
See when hard work don't pay off and I'm tired, there ain't

(Chorus)

Bridge: 
  G#m7                            F#maj7
  Go ahead and steal my heart to make me cry again
|------------------------------------------------|
|--10-------------------------------11-----------|
|--11-------------------------------10-----------|
|--13-------------------------------11-----------|
|--11-------------------------------9------------|
|------------------------------------------------|
  F#                           D#
  'Cause it will never hurt as much as it did then, and
|------------------------------------------------|
|--11---------------------------8----------------|
|--11---------------------------8----------------|
|--11---------------------------8----------------|
|--9----------------------------6----------------|
|------------------------------------------------|
  G#m7                    C#
  We were both right and no one had blame
|------------------------------------------------|
|--4----------------------6----------------------|
|--4----------------------6----------------------|
|--4----------------------6----------------------|
|--6----------------------4----------------------|
|--4---------------------------------------------|
  D#m                        Bbm7     Adim
  But now I give up on this endless game
|------------------------------------------------|
|--7--------------------------6------------------|
|--8--------------------------6-------5----------|
|--8--------------------------6-------7----------|
|--6--------------------------8-------6----------|
|-----------------------------6-------5----------|

Verse 3:
'Cause who wants to be right as rain
It's better when something is wrong
I get excitement in my bones
Even though everything's a strain
When night comes and I'm on my own
You should know I chose to be alone
Who wants to be right as rain
It's harder when you're on top

(Pre Chorus)

(Chorus) x 2

Outro:
G#m7, F#maj7
whoaoa, yeah...
Suggest correction
comments
print report bad tab
guest
You may want to rate the tab now too:
select rating
Wanna post a correction for this tab? Suggest correction