Oops, an error
Loading. Please wait.

Rolling In The Deep Tab

version 1
version 1
570,309 views 444 this week
13 commentsread comments
1 2 3 4 5
accurate
x 31
add to favorites
launch autoscroll
font size
0
reset
how to read this tab
guitar tuner
Autoscroll
slow
fast
+/-
esc
set tempo
stop
Help us to improve Ultimate-Guitar.com Take our survey!
×
Author
Tabbers playing skills
intermediate
Gtr 1 - acoustic
Gtr 2 - electric


Pretty easy song, but no one had tabbed it out yet so here it is. I will say though that 
the timing is a little weird. Just play along with the song to get the hang of it.

[Intro] 

Gtr 1
    Cm
e|---------------------------------------------------|
B|---------------------------------------------------|
G|---------------------------------------------------|
D|---------------------------------------------------|
A|--10-10-10-10-10-10-10-10-10-10-10-10-10-10-10-10--|
E|--8--8--8--8--8--8--8--8--8--8--8--8--8--8--8--8---|
    .  .  .  .  .  .  .  .  .  .  .  .  .  .  .  .


[Verse] 

Repeat this as necessary.

Gtr 1
    Cm                        Gm                Bb               Gm             Bb
e|--------------------------------------------------------------------------------|
B|--------------------------------------------------------------------------------|
G|--------------------------------------------------------------------------------|
D|--------------------------------------------------------------------------------|
A|--10-10-10-10-10-10-10-10--10-5-5-5-5-5-5-5--5-8-8-8-8-8-8-8--8-5-5-5-5--8-8-8--|
E|--8--8--8--8--8--8--8--8---8--3-3-3-3-3-3-3--3-6-6-6-6-6-6-6--6-3-3-3-3--6-6-6--|
    .  .  .  .  .  .  .  .   .  .  .  .  .  .  .  .  .  .  .    . . . . .  . . .


[Pre-Chorus]

The guitar pretty much cuts out here on the track. (The bass gets louder to 
make up for it.) The first part is most prominent, and follows the bass and the strum 
pattern of the verse. The second follows the piano.

Part 1

Gtr 1
e|-------------------------------------------------------------------------|
B|-------------------------------------------------------------------------|
G|-------------------------------------------------------------------------|
D|-------------------------------------------------------------------------|
A|--6-6-6-6-6-6-6-6---8-8-8-8-8-8-8-8---5-5-5-5-5-5-5-5---6-6-6-6-6-6-6-6--|
E|--4-4-4-4-4-4-4-4---6-6-6-6-6-6-6-6---3-3-3-3-3-3-3-3---4-4-4-4-4-4-4-4--|
    . . . . . . . .   . . . . . . . .   . . . . . . . .   . . . . . . . . 

Gtr 1
e|----------------------------------------------------------------------------|
B|----------------------------------------------------------------------------|
G|--------------------------------------------------------------3-3-3-3-3-----|
D|--------------------------------------------------------------5-5-5-5-5-----|
A|--6-6-6-6-6-6-6-6---8-8-8-8-8-8-8-8---5-5-5-5-5-5-5-5---5-5-5-5-5-5-5-5-----|
E|--4-4-4-4-4-4-4-4---6-6-6-6-6-6-6-6---3-3-3-3-3-3-3-3---3-3-3---------------|
    . . . . . . . .   . . . . . . . .   . . . . . . . .   . . . 

Part 2

I posted the lyrics above the tablature to help show the timing for everything, but in 
the end you're going to need to play along with the song.

       The scars of your love remind me of us
    G#              Bb                  Gm
e|-------------------------------------------|
B|-------------------------------------------|
G|-------------------------------------------|
D|--6~--------------8~----------8-------5~---|
A|--6~--------------8~----------8-------5~---|
E|--4~--------------6~------------------3~---|

They keep me thinking that we almost had it all
             G#                             G#
e|----------------------------------------------|
B|----------------------------------------------|
G|----------------------------------------------|
D|-----------6~---------------------------8-6~--|
A|-----------6~---------------------------8-6~--|
E|-----------4~---------------------------6-4~--|

The scars of your love, they leave me breathless
             Bb                       Gm
e|-----------------------------------------|
B|-----------------------------------------|
G|-----------------------------------------|
D|--6-------6-8~---------------------8-5~--|
A|--6-------6-8~---------------------8-5~--|
E|--4-------4-6~---------------------6-3~--|

I can't help feeling
             Gm
e|-----------------------------|
B|-----------------------------|
G|------3----------3-3-3-3-3---|
D|-----------5-5-5-5-5-5-5-5---|
A|-----------5-5-5-5-5-5-5-5---|
E|-----------------------------|


[Chorus] 

Again, no guitar on the track. But you could strum this if you wanted to. 
Repeat as necessary.
    Cm                   Bb                 G#                  G#         Bb
e|-----------------------------------------------------------------------------------|
B|-----------------------------------------------------------------------------------|
G|--5-5-5-5-5-5-5-5-----3-3-3-3-3-3-3-3-----5-5-5-5-5-5-5-5--------------------------|
D|--5-5-5-5-5-5-5-5-----3-3-3-3-3-3-3-3-----6-6-6-6-6-6-6-6-----6-6-6-6---8-8-8-8----|
A|--3-3-3-3-3-3-3-3-----1-1-1-1-1-1-1-1-----6-6-6-6-6-6-6-6-----6-6-6-6---8-8-8-8----|
E|--3-3-3-3-3-3-3-3-----1-1-1-1-1-1-1-1-----4-4-4-4-4-4-4-4-----4-4-4-4---6-6-6-6----|

    Cm                   Bb                 G#                  G#        Bb
e|------------------------------------------------------------------------------------|
B|------------------------------------------------------------------------------------|
G|--5-5-5-5-5-5-5-5-----3-3-3-3-3-3-3-3-----------------------------------------------|
D|--5-5-5-5-5-5-5-5-----3-3-3-3-3-3-3-3-----6-6-6-6-6-6-6-6-----6-6-6-6---8-8-8-8-----|
A|--3-3-3-3-3-3-3-3-----1-1-1-1-1-1-1-1-----6-6-6-6-6-6-6-6-----6-6-6-6---8-8-8-8-----|
E|--3-3-3-3-3-3-3-3-----1-1-1-1-1-1-1-1-----4-4-4-4-4-4-4-4-----4-4-4-4---6-6-6-6-----|


[Verse] 

Repeat this as necessary.

Gtr 1
    Cm                        Gm                Bb               Gm             Bb
e|--------------------------------------------------------------------------------|
B|--------------------------------------------------------------------------------|
G|--------------------------------------------------------------------------------|
D|--------------------------------------------------------------------------------|
A|--10-10-10-10-10-10-10-10--10-5-5-5-5-5-5-5--5-8-8-8-8-8-8-8--8-5-5-5-5--8-8-8--|
E|--8--8--8--8--8--8--8--8---8--3-3-3-3-3-3-3--3-6-6-6-6-6-6-6--6-3-3-3-3--6-6-6--|
    .  .  .  .  .  .  .  .   .  .  .  .  .  .  .  .  .  .  .    . . . . .  . . .


[Pre-Chorus]

The guitar pretty much cuts out here on the track. (The bass gets louder to 
make up for it.) The first part is most prominent, and follows the bass and the strum 
pattern of the verse. The second follows the piano.

Part 1

Gtr 1
e|-------------------------------------------------------------------------|
B|-------------------------------------------------------------------------|
G|-------------------------------------------------------------------------|
D|-------------------------------------------------------------------------|
A|--6-6-6-6-6-6-6-6---8-8-8-8-8-8-8-8---5-5-5-5-5-5-5-5---6-6-6-6-6-6-6-6--|
E|--4-4-4-4-4-4-4-4---6-6-6-6-6-6-6-6---3-3-3-3-3-3-3-3---4-4-4-4-4-4-4-4--|
    . . . . . . . .   . . . . . . . .   . . . . . . . .   . . . . . . . . 

Gtr 1
e|----------------------------------------------------------------------------|
B|----------------------------------------------------------------------------|
G|--------------------------------------------------------------3-3-3-3-3-----|
D|--------------------------------------------------------------5-5-5-5-5-----|
A|--6-6-6-6-6-6-6-6---8-8-8-8-8-8-8-8---5-5-5-5-5-5-5-5---5-5-5-5-5-5-5-5-----|
E|--4-4-4-4-4-4-4-4---6-6-6-6-6-6-6-6---3-3-3-3-3-3-3-3---3-3-3---------------|
    . . . . . . . .   . . . . . . . .   . . . . . . . .   . . . 

Part 2

I posted the lyrics above the tablature to help show the timing for everything, but in 
the end you're going to need to play along with the song.

       The scars of your love remind me of us
    G#              Bb                  Gm
e|-------------------------------------------|
B|-------------------------------------------|
G|-------------------------------------------|
D|--6~--------------8~----------8-------5~---|
A|--6~--------------8~----------8-------5~---|
E|--4~--------------6~------------------3~---|

They keep me thinking that we almost had it all
             G#                             G#
e|----------------------------------------------|
B|----------------------------------------------|
G|----------------------------------------------|
D|-----------6~---------------------------8-6~--|
A|-----------6~---------------------------8-6~--|
E|-----------4~---------------------------6-4~--|

The scars of your love, they leave me breathless
             Bb                       Gm
e|-----------------------------------------|
B|-----------------------------------------|
G|-----------------------------------------|
D|--6-------6-8~---------------------8-5~--|
A|--6-------6-8~---------------------8-5~--|
E|--4-------4-6~---------------------6-3~--|

I can't help feeling
             Gm
e|-----------------------------|
B|-----------------------------|
G|------3----------3-3-3-3-3---|
D|-----------5-5-5-5-5-5-5-5---|
A|-----------5-5-5-5-5-5-5-5---|
E|-----------------------------|


[Chorus 2] 

Pretty much the same as the first chorus, but the order of the chords change 
at the end of it.
    Cm                   Bb                  G#                 G#         Bb
e|------------------------------------------------------------------------------------|
B|------------------------------------------------------------------------------------|
G|--5-5-5-5-5-5-5-5-----3-3-3-3-3-3-3-3-----5-5-5-5-5-5-5-5---------------------------|
D|--5-5-5-5-5-5-5-5-----3-3-3-3-3-3-3-3-----6-6-6-6-6-6-6-6-----6-6-6-6---8-8-8-8-----|
A|--3-3-3-3-3-3-3-3-----1-1-1-1-1-1-1-1-----6-6-6-6-6-6-6-6-----6-6-6-6---8-8-8-8-----|
E|--3-3-3-3-3-3-3-3-----1-1-1-1-1-1-1-1-----4-4-4-4-4-4-4-4-----4-4-4-4---6-6-6-6-----|

    Cm                   Bb                  G#                 G#         Bb
e|------------------------------------------------------------------------------------|
B|------------------------------------------------------------------------------------|
G|--5-5-5-5-5-5-5-5-----3-3-3-3-3-3-3-3-----5-5-5-5-5-5-5-5---------------------------|
D|--5-5-5-5-5-5-5-5-----3-3-3-3-3-3-3-3-----6-6-6-6-6-6-6-6-----6-6-6-6---8-8-8-8-----|
A|--3-3-3-3-3-3-3-3-----1-1-1-1-1-1-1-1-----6-6-6-6-6-6-6-6-----6-6-6-6---8-8-8-8-----|
E|--3-3-3-3-3-3-3-3-----1-1-1-1-1-1-1-1-----4-4-4-4-4-4-4-4-----4-4-4-4---6-6-6-6-----|

    G#                   Bb                  Cm                  Bb
e|--------------------------------------------------------------------------------|
B|--------------------------------------------------------------------------------|
G|--5-5-5-5-5-5-5-5-------------------------5-5-5-5-5-5-5-5-----3-3-3-3-3-3-3-3---|
D|--6-6-6-6-6-6-6-6-----8-8-8-8-8-8-8-8-----5-5-5-5-5-5-5-5-----3-3-3-3-3-3-3-3---|
A|--6-6-6-6-6-6-6-6-----8-8-8-8-8-8-8-8-----3-3-3-3-3-3-3-3-----1-1-1-1-1-1-1-1---|
E|--4-4-4-4-4-4-4-4-----6-6-6-6-6-6-6-6-----3-3-3-3-3-3-3-3-----1-1-1-1-1-1-1-1---|

    G#                 Bb
e|------------------------------------------------------------------------------|
B|------------------------------------------------------------------------------|
G|------------------------------------------------------------------------------|
D|--6-6-6-6-6-6-6-6---6-6-6-6-6-6-6-6-----8-8-8-8-8-8-8-8---8-8-8-8-8-8-8-8-----|
A|--6-6-6-6-6-6-6-6---6-6-6-6-6-6-6-6-----8-8-8-8-8-8-8-8---8-8-8-8-8-8-8-8-----|
E|--4-4-4-4-4-4-4-4---4-4-4-4-4-4-4-4-----6-6-6-6-6-6-6-6---6-6-6-6-6-6-6-6-----|


[Bridge/Verse 3] 

The palm-muted part doesn't come in for this verse. Instead, there's 
some solo guitar that, for the most part, is incredibly hard to hear. I tabbed what I 
could accurately make out.

Throw your soul through every open door
e|---------------------|
B|---------------------|
G|---------------------|
D|---------------------|
A|---------------------|
E|---------------------|


Count your blessings to find what you look for
Gtr 2
e|-----------------------------------------|
B|---------------------------11b13---------|
G|---------------------------10b12---------|
D|-----------------------------------------|
A|-----------------------------------------|
E|-----------------------------------------|

Turn my sorrow into treasured gold
e|---------------------|
B|---------------------|
G|---------------------|
D|---------------------|
A|---------------------|
E|---------------------|

You pay me back in kind and reap just what you sow
Gtr 2
e|-----------------------------------------------------|
B|--------------------------4---6---8---11---13---13~--|
G|------------------------------------------------12~--|
D|-----------------------------------------------------|
A|-----------------------------------------------------|
E|-----------------------------------------------------|


After this the guitar cuts out altogether for a bit. Once the chorus picks up again, 
repeat the chords for the first chorus and end on this.

e|-------|
B|-------|
G|---5---|
D|---5---|
A|---3---|
E|-------|

That's it! God bless. :)



************************************

| b  Bend
| ~  Vibrato

************************************
Suggest correction
What's this?
You can suggest a correction to this tab. Community and Mods will review your correction and vote to approve or reject it.
comments
print report bad tab
13 comments total. Showing first comments.
0 reply
NAOR 1,282 wrote on August 19 2011, 08:11 am

great tab !

0 reply
izak.atak 2,209 wrote on August 21 2011, 12:18 am

Thanks! :)

+3 reply
musika86 17 wrote on October 9 2011, 02:09 am

Good chords, but instead of G# it should be Ab. Although the same notes, the song is in the key of Eb, so it's an Ab chord.

guest
You may want to rate the tab now too:
select rating
Please do not post tabs as comments. Select "correction" instead!