Oops, an error
Loading. Please wait.

Rolling In The Deep Bass Tab

version 3
12,944 views 18 this week
no commentswrite comment
1 2 3 4 5
worth learning
x 4
add to favorites
launch autoscroll
font size
0
reset
guitar tuner
Tab Pro tools
  • play this tab
  • loop segment
  • change instrument
  • show fretboard
  • metronome
×
Best way to learn
"Rolling In The Deep"
Autoscroll
slow
fast
+/-
esc
set tempo
stop
Contributor
Difficulty
novice
INTRO
G|----------------|-----------------|-----------------|-----------------| 
D|----------------|-----------------|-----------------|-----------------|
A|3-3-3-3-3-3-3-3-|-3-3-3-3-3-3-3-3-|-3-3-3-3-3-3-3-3-|-3-3-3-3-3-3-3-3-|
E|----------------|-----------------|-----------------|-----------------|

VERSE 1 & 2  (Play this x4 for verse1; x2 for verse2)
G|----------------|-----------------|-----------------|-----------------| 
D|----------------|-----------------|-----------------|-----------------| 
A|3-3-3-3-3-3-3-3-|-----------------|-1-1-1-1-1-1-1-1-|---------1-1-1-1-|
E|----------------|-3-3-3-3-3-3-3-3-|-----------------|-3-3-3-3---------|
  There's a fire, starting in my heart, reaching a fever pitch.......

PRE-CHORUS
G|----------------|-----------------|-----------------|-----------------| 
D|----------------|-----------------|-----------------|-----------------|
A|----------------|-----------------|-----------------|-----------------|
E|4-4-4-4-4-4-4-4-|-6-6-6-6-6-6-6-6-|-3-3-3-3-3-3-3-3-|-4-4-4-4-4-4-4-4-|
  The scars of your love remind me of us, they keep me thinking that we.....
G|----------------|-----------------|-----------------|-----------------| 
D|----------------|-----------------|-----------------|-----------------|
A|----------------|-----------------|-----------------|-----------------|
E|4-4-4-4-4-4-4-4-|-6-6-6-6-6-6-6-6-|-3-3-3-3-3-3-3-3-|-3-3-3-3-3-3-3-3-|
  The scars of your love, they leave me breathless, I can't help feeling....

CHORUS 1   (0:58)
G|----------------|-----------------|-----------------|-----------------|x2 
D|----------------|-----------------|-----------------|-----------------|
A|3-3-3-3-3-3-3-3-|-----------------|-----------------|-----------------|
E|----------------|-6-6-6-6-6-6-6-6-|4-4-4-4-4-4-4-4--|-4-4-4-4-6-6-6-6-|
  We could have had it all.......

back to Verse

CHORUS 2  (1:54)

G|----------------|-----------------|-----------------|-----------------|x2 
D|----------------|-----------------|-----------------|-----------------|
A|3-3-3-3-3-3-3-3-|-----------------|-----------------|-----------------|
E|----------------|-6-6-6-6-6-6-6-6-|4-4-4-4-4-4-4-4--|-4-4-4-4-6-6-6-6-|
  We could have had it all...........rolling in the deep.......


G|----------------|-----------------|-----------------|-----------------| 
D|----------------|-----------------|-----------------|-----------------|
A|----------------|-----------------|-3-3-3-3-3-3-3-3-|-----------------|
E|4-4-4-4-4-4-4-4-|-6-6-6-6-6-6-6-6-|-----------------|-6-6-6-6-6-6-6-6-|
  Could have had it all...........rolling in the deep.......

G|----------------|-----------------|-----------------|-----------------|
D|----------------|-----------------|-----------------|-----------------|
A|----------------|-----------------|-----------------|-----------------|
E|4-4-4-4-4-4-4-4-|-4-4-4-4-4-4-4-4-|-6-6-6-6-6-6-6-6-|-6-6-6-6-6-6-6-6-|
You had my heart inside of your hand, but you played it with a beating

BRIDGE (2:32)

G|----------------|-----------------|-----------------|-----------------|x2
D|----------------|-----------------|-----------------|-----------------|
A|-x-3-x-3-x-3-x-3|-x-3-x-3-x-3-x-3-|-x-3-x-3-x-3-x-3-|-x-3-x-3-x-3-x-3-|
E|----------------|-----------------|-----------------|-----------------|
  Throw your soul through every open door, count your blessings.........

G|----------------|-----------------|-----------------|-----------------|x2
D|----------------|-----------------|-----------------|-----------------|
A|-3~-------------|-----------------|-----------------|-----------------|
E|----------------|-6---------------|---4~------------|-4------6--------|
                 ....................we could have had it all...........

FINAL CHORUS (3:06) 

G|----------------|-----------------|-----------------|-----------------|x4
D|----------------|-----------------|-----------------|-----------------|
A|3-3-3-3-3-3-3-3-|-----------------|-----------------|-----------------|
E|----------------|-6-6-6-6-6-6-6-6-|-4-4-4-4-4-4-4-4-|-4-4-4-4-6-6-6-6-|



Tabbed by MF
comments
print report bad tab
I want to post or [tab]
guest
You may want to rate the tab now too:
select rating
Please do not post tabs as comments. Select "correction" instead!