Oops, an error
Loading. Please wait.

Rolling In The Deep Tab

version 3
version 3
39,498 views 6 this week
1 commentread comment
1 2 3 4 5
please rate
add to favorites
launch autoscroll
font size
0
reset
how to read this tab
guitar tuner
Tab Pro tools
  • play this tab
  • loop segment
  • change instrument
  • show fretboard
  • metronome
×
Best way to learn
"Rolling In The Deep"
Autoscroll
slow
fast
+/-
esc
set tempo
stop
Contributor
#----------------------------------PLEASE NOTE--------------------------------#
#This file is the author's own work and represents their interpretation of the#
#song. You may only use this file for private study, scholarship, or research.#
#-----------------------------------------------------------------------------#
#-- File created with Instab - http://www.pconline.com/~smcarey/instab.html --#
#-----------------------------------------------------------------------------#

Author/Artist: Adele
Title: Rollin' In The Deep



Tuning (eb A D G B E), (eb, D) Down ~ 10%  
Live Standard Tuning
Key: (E + D) -> (E + A) or (D + C#)


----|---------------------------------|
----|---------------------------------|
----|---------------------------------|
----|---------------------------------|
----|---------------------------------|
----|-9-9-9-9-9-9-9-9-9-9-9-9-9-9-9-9-|
    

  Intro 



----|---------------------------------------------------------------------|
----|---------------------------------------------------------------------|
----|---------------------------------------------------------------------|
----|---------------------------------------------------------------------|
----|---------------------------------------------------------------------|
----|-9-9-9-9-9-9-9-9-9-9-4-4-4-4-4-4-4-7-7-7-7-7-7-7-7-7-4-4-4-4-7-7-7-7-|
    

  Verse 




----|------------------------------------------------------------------|
----|------------------------------------------------------------------|
----|-5--------------3------------------3--0---------------------------|
----|-6--------------3------------------3--1---------------------------|
----|------------------------------------------------------------------|
----|------------------------------------------------------------------|
 

      "The scars of your love remind me of us.  They keep me thinking



----|-----------------------------------------------------------------|
----|-----------------------------------------------------------------|
----|--------------------4--5---------5----5-5-3-------------------3--|
----|--------------------5--6---------6----6-6-3-------------------3--|
----|-----------------------------------------------------------------|
----|-----------------------------------------------------------------|
  

       that we almost had it all.  The scars of your love they keep me



----|-------------------------------------------------------------|
----|-------------------------------------------------------------|
----|--0--------------------3----4---------4------4--------4------|
----|--0--------------------5----5---------5------5--------5------|
----|-------------------------------------------------------------|
----|-------------------------------------------------------------|
  

      breathless.  I can't help feeling.     We  could of had it







----|----------------------------------------------------------------|
----|----------------------------------------------------------------|
----|----------------------------------------------------------------|
----|----------------------------------------------------------------|
----|----------------------------------------------------------------|
----|-9-9-9-9-9-9-9-9-4-4-4-4-4-4-4-4-4-5-5-5-5-5-5-5-5-5-5-7-7-7-7--|
     

  Chorus 




comments
We did not receive enough feedback on this tab! Please rate:
print report bad tab
1 2 3 4 5
1 comment total.
+1 reply
noelpark wrote on October 24 2014, 05:31 am

This tab is complete rubbish

I want to post or [tab]
guest
You may want to rate the tab now too:
select rating
Please do not post tabs as comments. Select "correction" instead!