Oops, an error
Loading. Please wait.

Rolling In The Deep Bass Tab

version 4
5,325 views 3 this week
no commentswrite comment
1 2 3 4 5
1 last vote to show rating
add to favorites
launch autoscroll
font size
0
reset
guitar tuner
Autoscroll
slow
fast
+/-
esc
set tempo
stop
Help us to improve Ultimate-Guitar.com Take our survey!
×
Author
Difficulty
novice
Tabbed by: BASSteve

Tuning: EADG

Time signature: 8/8

r = rest (listen for duration)
h = hammer on
/ = slide (low to high)
\ = slide (high to low)
||= measure gets repeated (see number of times above measure, e.g. 4x)


*My tabs are meant to be read in conjunction with listening to the song.
In other words, there are no specific notations to account for note/rest duration. 
However, you will find that I've made an attempt to strategically space the notes 
and rests within their respective measures in order to represent the appropriate 
durations.



GUITAR/VOCAL INTRO [18x]


PRE-CHORUS

G|--------------------------------|--------------------------------|
D|--------------------------------|--------------------------------|
A|--------------------------------|--------------------------------|
E|4---4---4---4---4---4---4---4---|6---6---6---6---6---6---6---6---|



|--------------------------------|--------------------------------|
|--------------------------------|--------------------------------|
|--------------------------------|--------------------------------|
|3---3---3---3---3---3---3---3---|4---4---4---4---4---4---4---4---|



|--------------------------------|--------------------------------|
|--------------------------------|--------------------------------|
|--------------------------------|--------------------------------|
|4---4---4---4---4---4---4---4---|6---6---6---6---6---6---6---6---|



|--------------------------------|--------------------------------|
|--------------------------------|--------------------------------|
|--------------------------------|--------------------------------|
|3---3---3---3---3---3---3---3---|3---3---3---3---3---3---3---3---|



CHORUS [2x]

||--------------------------------|--------------------------------|
||--------------------------------|--------------------------------|
||--------------------------------|--------------------------------|
||8---8---8---8---8---8---8---8---|6---6---6---6---6---6---6---6---|


                 
|--------------------------------|--------------------------------||
|--------------------------------|--------------------------------||
|--------------------------------|--------------------------------||
|4---4---4---4---4---4---4---4---|4---4---4---4---6---6---6---6---||



VERSE [2x]

||--------------------------------|--------------------------------|
||--------------------------------|--------------------------------|
||--------------------------------|--------------------------------|
||8---8---8---8---8---8---8---8---|8---3---3---3---3---3---3---3---|



|--------------------------------|--------------------------------||
|--------------------------------|--------------------------------||
|--------------------------------|--------------------------------||
|3---6---6---6---6---6---6---6---|6---3---3---3---3---6---6---6---||



[PRE-CHORUS]


[CHORUS]


BRIDGE

|--------------------------------|--------------------------------|
|--------------------------------|--------------------------------|
|--------------------------------|--------------------------------|
|4---4---4---4---4---4---4---4---|6---6---6---6---6---6---6---6---|



|--------------------------------|--------------------------------|
|--------------------------------|--------------------------------|
|--------------------------------|--------------------------------|
|8---8---8---8---8---8---8---8---|6---6---6---6---6---6---6---6---|


  2x                                   2x
||--------------------------------|| ||--------------------------------||
||--------------------------------|| ||--------------------------------||
||--------------------------------|| ||--------------------------------||
||4---4---4---4---4---4---4---4---|| ||6---6---6---6---6---6---6---6---||


                                   3x
|--------------------------------||--------------------------------||
|--------------------------------||--------------------------------||
|--------------------------------||--------------------------------||
|8---r---------------------------||r-------------------------------||


  2x
||--------------------------------|--------------------------------||
||--------------------------------|--------------------------------||
||r---3---r---3---r---3---r---3---|r---3---r---3---r---3-3---------||
||--------------------------------|------------------------3h6-----||



|--------------------------------|--------------------------------|
|--------------------------------|--------------------------------|
|3-------------------------------|--------------------------------|
|--------------------------------|6-------------------------------|



|--------------------------------|--------------------------------|
|--------------------------------|--------------------------------|
|--------------------------------|--------------------------------|
|4-------------------------------|4---------------6---------------|



|--------------------------------|--------------------------------|
|--------------------------------|----------------8---------------|
|--------------------------------|--------------------------------|
|8-------------------------------|6-------------------------------|



|--------------------------------|--------------------------------|
|--------------------------------|--------------------------------|
|--------------------------------|--------------------------------|
|4-------------------------------|4---4---4---4---6---6---6---6---|



OUTRO

  2x
||--------------------------------|--------------------------------|
||--------------------------------|--------------------------------|
||--------------------------------|--------------------------------|
||8---8---8---8---8---8---8---8---|6---6---6---6---6---6---6---6---|


                 
|--------------------------------|--------------------------------||
|--------------------------------|--------------------------------||
|--------------------------------|--------------------------------||
|4---4---4---4---4---4---4---4---|4---4---4---4---6---6---6---6---||


  2x
||--------------------------------|--------------------------------|
||--------------------------------|--------------------------------|
||--------------------------------|--------------------------------|
||8---8---8---8---8---8---8---8/-\|6---6---6---6---6---6---6---6/-\|


                 
|--------------------------------|--------------------------------||
|--------------------------------|--------------------------------||
|--------------------------------|--------------------------------||
|4---4---4---4---4---4---4---4---|4---4---4---4---6---6---6---6---||



|--------------------------------|
|--------------------------------|
|--------------------------------|
|8\--r---------------------------|



              (PLEASE RATE THIS TAB / LEAVE COMMENT)                   
Suggest correction
Give kudos to tab author, rate the tab!
1 2 3 4 5
comments
print report bad tab
guest
You may want to rate the tab now too:
select rating
Wanna post a correction for this tab? Suggest correction