Oops, an error
Loading. Please wait.

Rolling In The Deep Bass Tab

version 5
11,166 views 6 this week
no commentswrite comment
1 2 3 4 5
accurate
x 3
add to favorites
launch autoscroll
font size
0
reset
guitar tuner
Autoscroll
slow
fast
+/-
esc
set tempo
stop
Help us to improve Ultimate-Guitar.com Take our survey!
×
Author
Rolling in the Deep
Adele
Tabbed by: avill616@yahoo.com

Verse1  
G|--------------------------------------------|
D|--------------------------------------------|
A|-3--3--3--3------------1--1--1--1------1--1-|
E|------------3--3--3--3------------3--3------|2x

Verse2
G|---------------------------------------------------------------|
D|---------------------------------------------------------------|
A|-3-3-3-3-3-3-3-3----------------1-1-1-1-1-1-1-1--------1-1-1-1-|
E|-----------------3-3-3-3-3-3-3-3----------------3-3-3-3--------|2x

Bridge 
G|----------------------------------------------------------------------|
D|----------------------------------------------------------------------|
A|----------------------------------------------------------------------|
E|-4-4-4-4-4-4-4-4--6-6-6-6-6-6-6-6-6--3-3-3-3-3-3-3-3--4-4-4-4-4-4-4-4-|

G|-------------------------------------------|
D|-------------------------------------------|
A|-------------------------------------------|
E|-4-4-4-4-4-4-4-4--6-6-6-6-6-6-6-6-6--3(12)-|

Chorus1 
G|----------------------------------|---------------|
D|----------------------------------|---------------|
A|---------3-3-3-3-3-3-3-3--1-1-1-1-|-------1-1-1-1-|
E|-3-3-3-3--------------------------|-4(12)---------|

G|---------------|---------------|
D|---------------|---------------|
A|-3(12)-1-1-1-1-|-------1-1-1-1-|
E|---------------|-4(12)---------|

Repeat verse2, bridge, chorus

Chorus2
G|----------------------------------|---------------|
D|----------------------------------|---------------|
A|---------3-3-3-3-3-3-3-3--1-1-1-1-|-------1-1-1-1-|
E|-3-3-3-3--------------------------|-4(12)---------|

G|---------------|---------------|
D|---------------|---------------|
A|-3(12)-1-1-1-1-|-------1-1-1-1-|
E|---------------|-4(12)---------|

G|----------------------------------|---------------|
D|----------------------------------|---------------|
A|---------3-3-3-3-3-3-3-3--1-1-1-1-|-------1-1-1-1-|
E|-3-3-3-3--------------------------|-4(12)---------|

G|---------------|-----------------------|
D|---------------|-----------------------|
A|-3(12)-1-1-1-1-|-------1-1-1-1-1-1-1-1-|
E|---------------|-4(12)-----------------|


Clapping "turn my sorrow..."
G|-----------------|-----------------|
D|-----------------|-----------------|
A|-3-3-3-3-3-3-3-3-|-3-3-3-3-3-3-3-3-|
E|-----------------|-----------------|

Chorus3
E|------------------------------------|--------------|
D|------------------------------------|--------------|
A|-3~---------------------3~----3~----|------1-1-1-1-|
E|------6~----4~---4~--6~----------6~-|-4(8)---------|

G|----------------------------------|---------------|
D|----------------------------------|---------------|
A|---------3-3-3-3-3-3-3-3--1-1-1-1-|-------1-1-1-1-|
E|-3-3-3-3--------------------------|-4(12)---------|

G|---------------|---------------|
D|---------------|---------------|
A|-3(12)-1-1-1-1-|-------1-1-1-1-|
E|---------------|-4(12)---------|

G|----------------------------------|---------------|
D|----------------------------------|---------------|
A|---------3-3-3-3-3-3-3-3--1-1-1-1-|-------1-1-1-1-|
E|-3-3-3-3--------------------------|-4(12)---------|

G|---------------|------------------|
D|---------------|------------------|
A|-3(12)-1-1-1-1-|-------1-1-1-1--3-|
E|---------------|-4(16)------------|
Suggest correction
Give kudos to tab author, rate the tab!
1 2 3 4 5
comments
print report bad tab
guest
You may want to rate the tab now too:
select rating
Please do not post tabs as comments. Select "correction" instead!