Oops, an error
Loading. Please wait.

Set Fire To The Rain Bass Tab

version 1
version 1

Whole song

Interactive

39,289 views 27 this week
no commentswrite comment
1 2 3 4 5
please rate
add to favorites
launch autoscroll
font size
0
reset
guitar tuner
Autoscroll
slow
fast
+/-
esc
set tempo
stop
Help us to improve Ultimate-Guitar.com Take our survey!
×
Author
Difficulty
intermediate
-------------------------------------------------------------------------------
			     Set Fire To The Rain - Adele
-------------------------------------------------------------------------------

Tabbed By : Nuve
e-mail: evious@gmail.com

Tuning: Standard

My first tab .. sounds pretty good and should be a good base to work off

timing not 100% listen for it other than that this is how i play it


G|-------------------------------------------------------------------------------|
D|-------------------------------------------------------------------------------|
A|-------5*---7-8*/3---------3-5*\12/3*--0-1*-11-0----------3-5-5-55---5-5-5-5---|
E|-----5------------1/3-3-5-----------------------3*-3-3-5----------5------------|
                                             1's not 11's
G|----------------------------------------------------------------------------|
D|----------------------------------------------------------------------------|
A|0-1-11-11--333333333333/12\0-5--5-5-5-5-5-5-5-5-5-5-5-7-7-8-8-3-3-3-3-3-3-3-|
E|----------------------------------------------------------------------------|

G|----------------------------------------------------------------------------|
D|----------------------------------------------------------------------------|
A|-3-3-3-3-3-5-5-7-7---------------------------------3-5-5-7-7-8-8\3-3-3-3-3--|
E|-------------------3-3-3-3-3-3-3-3-3-3-3-3-3-3-5-5--------------------------|

G|----------------------------------------------------------------------------|
D|----------------------------------------------------------------------------|
A|-3-3-3-5*-7-8*-3*-----------3-5*\12*/3*-3-3-3-333-0-1-111-0----------5-5-5--|
E|------------------1/3-3-3-5---------------------------------3--1-3\5--------|

G|----------------------------------------------------------------------------|
D|----------------------------------------------------------------------------|
A|-5-5-5-5-5-0-1-11-11-3-3-3-3-3-3-3-3\15-15-15-15-15/12/5-5-5-5-5-5-5-5-5-5--|
E|--5-------------------------------------------------------------------------|

G|----------------------------------------------------------------------------|
D|----------------------------------------------------------------------------|
A|-5-7-7-8-8-3-3-3-3-3-3-3-3-3-3-3-3-5-5-7-7-----------------------------3-5--|
E|-------------------------------------------3-3-3-3-3-3-3-3-3-3-3-3-5-5------|

G|----------------------------------------------------------------------------|
D|----------------------------------------------------------------------------|
A|-5-5-7-7-8-8-3-3-3/15-15-15\5-5-5-5-5-5-5-5-5-5-5-7-7-8-8\3-3-3-3-3-3-3-3-3-|
E|----------------------------------------------------------------------------|

G|----------------------------------------------------------------------------|
D|----------------------------------------------------------------------------|
A|-3-3-5-5-7-7---------------------------------1-1-1-3-3-5-5-3-3-3-3-3-3-3/13-|
E|-------------3-3-3-3-3-3-3-3-3-3-3-3-3-3-3-3--------------------------------|

G|----------------------------------------------------------------------------|
D|----------------------------------------------------------------------------|
A|-13-15-13-12-12-12-12-12-12-12-12-12-12\3-3-3-3-3/13-13-13-13h15p13-12-12---|
E|----------------------------------------------------------------------------|
               Listen for timing on 12's
G|----------------------------------------------------------------------------|
D|----------------------------------------------------------------------------|
A|-12-12-12-12-12-12\3-3-3-3-3-3-3-3-5-5-5-5-5-5-5-5-5-5-5-7-7-8-8-3-3-3-3-3--|
E|----------------------------------------------------------------------------|

G|----------------------------------------------------------------------------|
D|----------------------------------------------------------------------------|
A|-3-3-3-3-3-3-5-5-7-7-----------------------------3-5-5-5-7-7-8-8-3-3-3/15---|
E|---------------------3-3-3-3-3-3-3-3-3-3-3-3-5-5----------------------------|

G|----------------------------------------------------------------------------|
D|----------------------------------------------------------------------------|
A|-15-15\5-5-5-5-5-5-5-5-5-5-5-7-7-8-8-3-3-3-3-3-3-3-3-3-3-5-5-7-7-0-3-3-3----|
E|--------------------------------------------------3-------------------------|

G|----------------------------------------------------------------------------|
D|-----------------------------------------------------------------------7-7--|
A|-----------------------1-1-1-3-3-5-5-3-3-3-3-3-3-3-3-5-5-5-5-5-5-5-5-5------|
E|-3-3-3-3-3-3-3-3-3-3-3------------------------------------------------------|

G|----------------------------------------------------------------------------|
D|-----------------------------5-5-2-2----------------------------------------|
A|-8-8-5-5-5-3-3-3-3-3-3-3-3-3---------3-3-0-------------------------------3--|
E|-------------------------------------------3-3-3-3-3-3-3-3-3-3-3-5-5-5-5----|

G|----------------------------------------------------------------------------|
D|-----------------------------------------------7-7--------------------------|
A|5-5-5-7-7-8-8-3-3-3/15-15-15\5-5-5-5-5-5-5-5-5-----8-8-5-5-5-3-3-3-3-3-3-3-3|
E|----------------------------------------------------------------------------|

G|----------------------------------------------------------------------------|
D|---5-5-2-2------------------------------------------------------------------|
A|-3---------3-3-0---------------------------------1-1-1-1-1-0-1-3-3-3-3-3-3-3|
E|-----------------3-3-3-3-3-3-3-3-3-3-3-3-3-3-3-3----------------------------|

G|---5------------------------------------------------------------------------|
D|---5------------------------------------------------------------------------|
A|-3-3------------------------------------------------------------------------|
E|----------------------------------------------------------------------------|



| /  slide up
| \  slide down
| h  hammer-on
| p  pull-off
| ~  vibrato
| +  harmonic
| x  Mute note

===============================================================================
Suggest correction
Give kudos to tab author, rate the tab!
1 2 3 4 5
comments
print report bad tab
guest
You may want to rate the tab now too:
select rating
Please do not post tabs as comments. Select "correction" instead!