Oops, an error
Loading. Please wait.

Set Fire To The Rain Bass Tab

version 2
version 2

Whole song

Interactive

16,315 views 60 this week
no commentswrite comment
1 2 3 4 5
excellent!
x 4
add to favorites
launch autoscroll
font size
0
reset
guitar tuner
Tab Pro tools
  • play this tab
  • loop segment
  • change instrument
  • show fretboard
  • metronome
×
Best way to learn
"Set Fire To The Rain"
Autoscroll
slow
fast
+/-
esc
set tempo
stop
Contributor
------------------------------------------
                             SET FIRE TO THE RAIN - Adele
-------------------------------------------------------------------------------

Tabbed By : Alex
e-mail: 

Tuning: EADG

Verse 0:27
My hands, they were strong...
G|--------------------------------------------|
D|--------------------------------------------|
A|---5~-7-8~-3~-----023-5~-/12--\3~---3-3-3-3-|
E|--5-----------2-3---------------------------|

Prechorus 0:43
But there's a side
G|---------------------------------------------6-3-----------------------|
D|-----------------------------------------------------------------------|
A|-31-1-1-1-----------3-5-5-5-5-5-5-5-5-5-3-1--4-1--1/-3-3-3-3-3-3-3333/-|
E|----------53--3-3--5---------------------------------------------------|

Chorus 1:00
Set fire…
G|---------------------------------------------------------------------------|
D|---------------------------------------------------------------------------|
A|-5555555555555555-777888---------------------------------------------------|
E|------------------------8888888888888-101010-121212-3333333333333-777-8888-|

G|--------------------------------------------------|
D|--------------------------------------------------|
A|--------------------------------------------------|
E|-9-12-1010101010101010-121212131313-88888888-5578-|

Verse 1:16
When I lay…
G|----------------------------------------------|
D|----------------------------77777777----------|
A|-5~-/8~-3~-----------24-5~----------333333333-|
E|-----------2333333-35------5------------------|

Prechorus 1:34
But there's a side...
G|---------------------------------------------------------------------------|
D|------------------------7-------------7-6----------------------------------|
A|-31-1-1-1----------3-5-5---5-5-5-5-5-5---5--1111311-3-3-3-3-3-3-/15151515\-|
E|----------53--3-3-5--------------------------------------------------------|

Chorus 1:51
Set fire…
G|------------------------------------------------------------------------|
D|------------------------------------------------------------------------|
A|-5555555555555555-777888------------------------------------------------|
E|------------------------88888888888881010-121212-3333333333333-777-8888-|

G|------------------------------------------------|
D|------------------------------------------------|
A|------------------------------------------------|
E|-9-12-1010101010101010-121212131313-88888888/17-|

G|-------------------------------------------------------------------------|
D|-------------------------------------------------------------------------|
A|-5555555555555555777888--------------------------------------------------|
E|-----------------------8888888888888881010-121212-3333333333333-777-8888-|

G|-------------------------|
D|-88810101012121010101010-|
A|-------------------------|
E|-------------------------|

Bridge 2:25
Sometimes I wake up...
G|---------------------------5555555555--------------------------------------|
D|-88888888-7777777777777777------------88888888-7777\333333/77777-101010----|
A|---------8----------------7-------------------8------------------------5/12|
E|---------------------------------------------------------------------------|

Chorus 2:45
Set fire…
G|-------------------------------------------------------------------------|
D|-------------------------------------------------------------------------|
A|-555555555555555577888---------------------------------------------------|
E|----------------------8888888888888-101010-121212-33333333333333377-8888-|

G|--------------------------------------------------|
D|--------------------------------------------------|
A|--------------------------------------------------|
E|-9-12-1010101010101010-121212131313-88888888-5578-|

G|---------------------------------------------------------------------------|
D|---------------------------------------------------------------------------|
A|-55555555555555555777888---------------------------------------------------|
E|------------------------88888888888888101010-121212-33333333333333777-8888-|

G|--------------------------------|
D|-888-101010-1212-10101012121414-|
A|--------------------------------|
E|--------------------------------|

Outro 3:20
G|-------------------------------------------------------------------------|
D|-------------------------------------------------------------------------|
A|-55555555555555555577888-------------------------------------------------|
E|------------------------8888888888888888810121212-33333333333333377-8888-|

G|--------------------------------|
D|--------------------------------|
A|-55555555555557--------------8--|
E|---------------88888888888-10-8-|

G|---------------------------------------------------|
D|------------777------------------------------------|
A|-55555555555---888-33--------------101010----------|
E|-----------------------88888888888-------111111-88-|

G|----------------------------------------------------------|
D|----------------------------------------------------------|
A|----------------------------------------------------------|
E|-3333333333333777-888-10-666-888-101010-888-101010-121212-|
comments
print report bad tab
I want to post or [tab]
guest
You may want to rate the tab now too:
select rating
Please do not post tabs as comments. Select "correction" instead!