Oops, an error
Loading. Please wait.

Set Fire To The Rain Tab

version 3
version 3

Whole song

Interactive

65,273 views 75 this week
2 commentsread comments
1 2 3 4 5
x 16
add to favorites
launch autoscroll
font size
0
reset
how to read this tab
guitar tuner
×
Best way to learn
"Set Fire To The Rain"
Autoscroll
slow
fast
+/-
esc
set tempo
stop
Author
Adele - Set Fire to the Rain

Hi, you can find my video make with this tab on
youtube ( nick : Ipsaous ).

Salut, vous trouverez la vidéo associé à cette
tablature sur ma chaîne youtube ( Pseudo: Ipsaous )

Capo : 5th fret 
Capo : 5ème case

Verse : Do that 4 times but you need to alternate the last 2 chords
Couplet : A faire 4 fois en alternant les 2 derniers accords

     Am
e|---0--------------0-----------0---|
B|-----------1--------------1-------|
G|--------2----2--------2-----------|
D|----------------------------------|
A|---0------------------------------|
E|----------------------------------|

    C
e|----------------0h1p0-------------|
B|----------1-------------3---------|
G|-------0----0---------------------|
D|----------------------------------|
A|---3------------------------------|
E|----------------------------------|

     G
e|----------------------------------|
B|----------0----3----0-------------|
G|-------0----0----0----------------|
D|----------------------------------|
A|----------------------------------|
E|---3------------------------------|

     Dm
e|---1------------------1p0-------0---|
B|---------------3------------3-------|
G|-----------2------2-----------------| Do that first and third time
D|-------0----------------------------| Faire ça la 1ere et 3ème fois
A|------------------------------------| 
E|------------------------------------|

    Am
e|------------------------------------|
B|--1------------1-----1p0-----0------|
G|------------0-----0-------2---------| Do that second et fourth time
D|------------------------------------| Faire ça la 2ème et 4ème fois
A|------------------------------------|
E|------------------------------------|

 [Pre-Chorus]
     F
e|---------------|
B|---------0-----|
G|------2----2---|
D|---3-----------| X2
A|---------------|
E|---------------|

     Dm
e|---------------|
B|---------3-----|
G|------2----2---| X2
D|---0-----------|
A|---------------|
E|---------------|

     Am
e|----------------|
B|----------0-----|
G|-------2----2---| X2
D|----2-----------|
A|----------------|
E|----------------|

     Am
e|----------------|
B|----------1-----|
G|-------2----2---|
D|----2-----------| X2
A|----------------|
E|----------------|

      F
e|------------------|
B|----------0-------|
G|-------2----2-----| X2
D|----3-------------|
A|------------------|
E|------------------|

      G
e|------------------------------|
B|----------0----------0--------|
G|-------0----0-----0----0------|
D|------------------------------|
A|------------------------------|
E|----3-----------3---------3---|

[Chorus]
[Refrain]

( Rythm : D UD UUD DU )
( Pour la rythmique je fais : B HB HHB BH )

           Am
But I set fire to the rain,
            G
Watched it pour as I touched your face,
           F
Well, it burned while I cried,
                                    Am(Dm ?)       G
'Cause I heard it screaming out your name, your name,
       Am
I set fire to the rain,
            G
And I threw us into the flames,
         F
Well, I felt something die,
                                     Am(Dm ?)          G
'Cause I knew that that was the last time, the last time,

[Bridge]
Pont :
          F               C
Sometimes I wake up by the door,
               Em                     G
And heard you calling, must be waiting for you,
     F                    C
Even now when we're already over,
         Em                        G
I can't help myself from looking for you,


Finish the song with the chorus ;). Listen the
song to get how to play different parts .

Finir en jouant le refrain. Ecoutez la chanson
pour voir comment placer les différentes parties ;).
Suggest correction
comments
print report bad tab
2 comments total.
+1 reply
yzhmoeh 27 Mar 11, 2012 11:30 PM

Am
|---0--------------0---------------|
|-----------1--------------1-------|
|--------2----2--------2-----------|
|----------------------------------|
|---0------------------------------|
|----------------------------------|

C
|---0------------0h1p0-------------|
|----------1-------------3---------|
|-------0----0---------------------|
|----------------------------------|
|---3------------------------------|
|----------------------------------|

G
|----------------------------------|
|----------0----3----0-------------|
|-------0----0----0----------------|
|----------------------------------|
|----------------------------------|
|---3------------------------------|

Dm
|---1---------------1p0-------0---|
|------------3------------3-------|
|--------2------2-----------------| Do that first and third time
|---0-----------------------------| Faire ça la 1ere et 3ème fois
|---------------------------------|
|---------------------------------|

+2 reply
Bassprogman 10 Feb 16, 2013 03:14 PM

This is So good.

guest
You may want to rate the tab now too:
select rating
Wanna post a correction for this tab? Suggest correction