Oops, an error
Loading. Please wait.

Set Fire To The Rain Tab

version 5
version 5

Whole song

Interactive

1,600 views 6 this week
no commentswrite comment
1 2 3 4 5
please rate
add to favorites
launch autoscroll
font size
0
reset
how to read this tab
guitar tuner
Autoscroll
slow
fast
+/-
esc
set tempo
stop
Help us to improve Ultimate-Guitar.com Take our survey!
×
Author
Difficulty
Not a big fan of Adele but I like this song!

Riff 1 = x4

e|-0-------0-------0-------0-------0-------0-------0-------0-------0-|
b|---1---1---1---1---1---1---1---1---3---3---3---3---1---1---1---1---|
g|-----0-------0-------2-------2-------2-------2-------2-------2-----|
D|-------------------------------------------------------------------|
A|-------------------------------------------------------------------|
E|-------------------------------------------------------------------|

Riff 2 = x2

  P.M or just don't play loud
e|0-0-0-0-0-0-0-0-0-0-0-0-0-0-0-0-1-1-1-1-1-1-1-1-0-0-0-0-0-0-0-0|
b|1-1-1-1-1-1-1-1-1-1-1-1-1-1-1-1-1-1-1-1-1-1-1-1-1-1-1-1-1-1-1-1|
g|0-0-0-0-0-0-0-0-2-2-2-2-2-2-2-2-2-2-2-2-2-2-2-2-2-2-2-2-2-2-2-2|
D|2-2-2-2-2-2-2-2-2-2-2-2-2-2-2-2-3-3-3-3-3-3-3-3-2-2-2-2-2-2-2-2|
A|3-3-3-3-3-3-3-3-0-0-0-0-0-0-0-0-3-3-3-3-3-3-3-3-0-0-0-0-0-0-0-0|
E|---------------------------------------------------------------|

Riff 3

e|0-0-0-0-0-0-0-0-0-0-0-0-0-0-0-0-0-0-0-0-0-0-0-0-0-0-0-0-0-0-0-0|
b|1-1-1-1-1-1-1-1-1-1-1-1-1-1-1-1-3-3-3-3-3-3-3-3-1-1-1-1-1-1-1-1|
g|0-0-0-0-0-0-0-0-2-2-2-2-2-2-2-2-2-2-2-2-2-2-2-2-2-2-2-2-2-2-2-2|
D|2-2-2-2-2-2-2-2-2-2-2-2-2-2-2-2-0-0-0-0-0-0-0-0-2-2-2-2-2-2-2-2|
A|3-3-3-3-3-3-3-3-0-0-0-0-0-0-0-0-0-0-0-0-0-0-0-0-0-0-0-0-0-0-0-0|
E|---------------------------------------------------------------|

Riff 4 = x3

e|-0-------0-------0-------0-------0-------0-------0-------0-------0-|
b|---1---1---1---1---1---1---1---1---3---3---3---3---1---1---1---1---|
g|-----0-------0-------2-------2-------2-------2-------2-------2-----|
D|-------------------------------------------------------------------|
A|-------------------------------------------------------------------|
E|-------------------------------------------------------------------|

Riff 1

I let it fall, my heart,
And as it fell you rose to claim it.
It was dark and I was over,
Until you kissed my lips and you saved me.

My hands, they're strong,
But my knees were far too weak,
To stand in your arms,
Without falling to your feet.

Riff 2

But there's a side to you
That I never knew, never knew.
All the things you'd say
They were never true, never true,
And the games you play
You would always win, always win.

Riff 3

[Chorus:]
But I set fire to the rain,
Watched it pour as I touched your face,
Well, it burned while I cried,
Cause I heard it screaming out your name, your name!

Riff 4

When I lay with you,
I could stay there.
Close my eyes,
Feel you here forever.
You and me together,
Nothing is better.

Riff 2

'Cause there's a side to you
That I never knew, never knew,
All the things you'd say,
They were never true, never true,
And the games you'd play
You would always win, always win.

Riff 3

[Chorus:]
But I set fire to the rain,
Watched it pour as I touched your face,
Well, it burned while I cried
'Cause I heard it screaming out your name, your name!

I set fire to the rain
And I threw us into the flames
When it fell, something died
'Cause I knew that that was the last time, the last time!

Sometimes I wake up by the door,
That heart you caught must be waiting for you
Even now when we're already over
I can't help myself from looking for you.

[Chorus:]
I set fire to the rain,
Watched it pour as I touched your face,
Well, it burned while I cried
'Cause I heard it screaming out your name, your name

I set fire to the rain,
And I threw us into the flames
When it fell, something died
'Cause I knew that that was the last time, the last time, ohhhh!

Oh noooo
Let it burn, oh
Let it burn
Let it burn
Suggest correction
What's this?
You can suggest a correction to this tab. Community and Mods will review your correction and vote to approve or reject it.
comments
We did not receive enough feedback on this tab! Please rate:
print report bad tab
1 2 3 4 5
guest
You may want to rate the tab now too:
select rating
Please do not post tabs as comments. Select "correction" instead!