Oops, an error
Loading. Please wait.

Skyfall Bass Tab

version 1
version 1

Whole song

Interactive

22,758 views 165 this week
3 commentsread comments
1 2 3 4 5
worth learning
x 10
add to favorites
launch autoscroll
font size
0
reset
guitar tuner
Tab Pro tools
  • play this tab
  • loop segment
  • change instrument
  • show fretboard
  • metronome
×
Best way to learn
"Skyfall"
Autoscroll
slow
fast
+/-
esc
set tempo
stop
Contributor
Difficulty
novice
1:00 "For this is the end"

E|--------|--------|--------|--------|--------|--------|--------|-----3-3-|
A|----11--|8-------|----11--|8-------|----11--|8-----6-|5-------|/10------|
D|10------|--------|10------|--------|10------|--------|--------|---------|
G|--------|--------|--------|--------|--------|--------|--------|---------|

Chorus
|----------|4-44-4-4-3|1-11-1-1--|----33--|
|3-33-3-3-1|----------|---------6|5-5-----|
|----------|----------|----------|--------|
|----------|----------|----------|--------|

Var:
|----------|4-44-4-4-3|1-11-1-1--|--------3--|
|3-33-3-3-1|----------|---------6|5-55/10----|
|----------|----------|----------|-----------|
|----------|----------|----------|-----------|
Bridge:
|-----------|-----------|-----------|-----------|-----------|
|3------3---|3----------|3------3---|3------3---|3------3---|
|--56-3--33-|--56-3-333-|--56-3-333-|--56-3-333-|--56-3-333-|
|-----------|-----------|-----------|-----------|-----------|

"You can take my name"
|-----------|------------|3-3-3-3-|
|5-5-555-/10|10-10-10-10-|--------|
|-----------|------------|--------|
|-----------|------------|--------|

Chorus

|----------|4-44-4-4-3|1-11-1-1--|--------3--|
|3-33-3-3-1|----------|---------6|5-55/10----|
|----------|----------|----------|-----------|
|----------|----------|----------|-----------|

|----------|4-44-4-4-3|1-11-1-1--|----33---|
|3-33-3-3-1|----------|---------6|5-55-----|
|----------|----------|----------|---------|
|----------|----------|----------|---------|

Bridge
|--------|--------|--------|--------|--------|--------|--------|--------|
|3-------|--------|3-------|--------|3-------|--------|3-------|--------|
|--------|--------|--------|--------|--------|--------|--------|--------|
|--------|--------|--------|--------|--------|--------|--------|--------|

"Where you go I go"

|-----------|---------|--------|-------|
|-----3-----|---------|1-122-3-|3-333-1|
|3-33--3-3-5|6-66-6666|--------|-------|
|-----------|---------|--------|-------|

|4-44-4-4-3|1-11---------|---------|-----------------3-3-3-3-|
|----------|-------------|---------|1/10-10-10-10-10---------|
|----------|-----1h3-3-31|0-0-00-0-|-------------------------|
|----------|-------------|---------|-------------------------|

Chorus
|----------|4-44-4-4-3|1-11-1-1--|--------33-|
|3-33-3-3-1|----------|---------6|5-55/10----|
|----------|----------|----------|-----------|
|----------|----------|----------|-----------|

|----------|4-44-4-4-3|1-11-1-1--|-----------------|
|3-33-3-3-1|----------|---------6|5-55/10-10-10-10-|
|----------|----------|----------|-----------------|
|----------|----------|----------|-----------------|

|----------|4-44-4-4-3|1-11-1-1--|-----33-----|
|3-33-3-3-1|----------|---------6|5-55----/10-|
|----------|----------|----------|------------|
|----------|----------|----------|------------|


|----------|4-44-4-4-3|1---------|3-------|-------|
|3-33-3-3-1|----------|----------|--------|3------|
|----------|----------|----------|--------|-------|
|----------|----------|----------|--------|-------|
comments
print report bad tab
3 comments total.
0 reply
Andsome wrote on February 5 2014, 08:55 am

Other than the fact it's upside down and therefore impossible to read, this isn't actually that bad.

0 reply
mailson.anselmo wrote on April 18 2016, 09:11 am

1:00 "For this is the end"

G|--------|--------|--------|--------|--------|--------|--------|---------|
D|10------|--------|10------|--------|10------|--------|--------|---------|
A|----11--|8-------|----11--|8-------|----11--|8-----6-|5-------|/10------|
E|--------|--------|--------|--------|--------|--------|--------|-----3-3-|
Chorus

|----------|----------|----------|--------|
|----------|----------|----------|--------|
|3-33-3-3-1|----------|---------6|5-5-----|
|----------|4-44-4-4-3|1-11-1-1--|----33--|

Var:
|----------|----------|----------|-----------|
|----------|----------|----------|-----------|
|3-33-3-3-1|----------|---------6|5-55/10----|
|----------|4-44-4-4-3|1-11-1-1--|--------3--|

Bridge:
|-----------|-----------|-----------|-----------|-----------|
|--56-3--33-|--56-3-333-|--56-3-333-|--56-3-333-|--56-3-333-|
|3------3---|3----------|3------3---|3------3---|3------3---|
|-----------|-----------|-----------|-----------|-----------|
"You can take my name"
|-----------|------------|--------|
|-----------|------------|--------|
|5-5-555-/10|10-10-10-10-|--------|
|-----------|------------|3-3-3-3-|
Chorus
|----------|----------|----------|-----------|
|----------|----------|----------|-----------|
|3-33-3-3-1|----------|---------6|5-55/10----|
|----------|4-44-4-4-3|1-11-1-1--|--------3--|

|----------|----------|----------|---------|
|----------|----------|----------|---------|
|3-33-3-3-1|----------|---------6|5-55-----|
|----------|4-44-4-4-3|1-11-1-1--|----33---|

Bridge
|--------|--------|--------|--------|--------|--------|--------|--------|
|--------|--------|--------|--------|--------|--------|--------|--------|
|3-------|--------|3-------|--------|3-------|--------|3-------|--------|
|--------|--------|--------|--------|--------|--------|--------|--------|

"Where you go I go"
|-----------|---------|--------|-------|
|3-33--3-3-5|6-66-6666|--------|-------|
|-----3-----|---------|1-122-3-|3-333-1|
|-----------|---------|--------|-------|
|----------|-------------|---------|-------------------------|
|----------|-----1h3-3-31|0-0-00-0-|-------------------------|
|----------|-------------|---------|1/10-10-10-10-10---------|
|4-44-4-4-3|1-11---------|---------|-----------------3-3-3-3-|

Chorus
|----------|----------|----------|-----------|
|----------|----------|----------|-----------|
|3-33-3-3-1|----------|---------6|5-55/10----|
|----------|4-44-4-4-3|1-11-1-1--|--------33-|

|----------|----------|----------|-----------------|
|----------|----------|----------|-----------------|
|3-33-3-3-1|----------|---------6|5-55/10-10-10-10-|
|----------|4-44-4-4-3|1-11-1-1--|-----------------|
|----------|----------|----------|------------|
|----------|----------|----------|------------|
|3-33-3-3-1|----------|---------6|5-55----/10-|
|----------|4-44-4-4-3|1-11-1-1--|-----33-----|

|----------|----------|----------|--------|-------|
|----------|----------|----------|--------|-------|
|3-33-3-3-1|----------|----------|--------|3------|
|----------|4-44-4-4-3|1---------|3-------|-------|

0 reply
mailson.anselmo wrote on April 18 2016, 09:12 am, edited at 09:12 am

inverted!

I want to post or [tab]
guest
You may want to rate the tab now too:
select rating
Please do not post tabs as comments. Select "correction" instead!