Oops, an error
Loading. Please wait.

Skyfall Bass Tab

version 1
version 1

Whole song

Interactive

25,416 views 57 this week
4 commentsread comments
1 2 3 4 5
x 10
add to favorites
launch autoscroll
font size
0
reset
guitar tuner
Autoscroll
slow
fast
+/-
esc
set tempo
stop
Help us to improve Ultimate-Guitar.com Take our survey!
×
Author
Difficulty
novice
(1:00 "For this is the end")

G|----------|--------|---------|--------|---------|--------|--------|-----3-3--|
D|----1-1---|8-------|----1-1--|8-------|----1-1--|8-----6-|5-------|/1-0------|
A|1-0-------|--------|1-0------|--------|1-0------|--------|--------|----------|
E|----------|--------|---------|--------|---------|--------|--------|----------|

[Chorus]
G|-----------|4-4-4-4-4-3|1-1-1-1-1-|----3-3-|
D|3-3-3-3-3-1|-----------|---------6|5-5-----|
A|-----------|-----------|----------|--------|
E|-----------|-----------|----------|--------|

[Verse 1]
G|-----------|4-4-4-4-4-3|1-1-1-1-1--|--------3---|
D|3-3-3-3-3-1|-----------|----------6|5-5-5/1-0---|
A|-----------|-----------|-----------|------------|
E|-----------|-----------|-----------|------------|

[Bridge]
G|-------------|-------------|--------------|--------------|--------------|
D|3------3-----|3------------|3------3------|3------3------|3------3------|
A|--5-6-3--3-3-|-5-6-3-3-3-3-|--5-6-3-3-3-3-|-5-5-6-3-3-3-3|--5-6-3-3-3-3-|
E|-------------|-------------|--------------|--------------|--------------|

"You can take my name"
G|--------------|----------------|3-3-3-3-|
D|5-5-5-5-5-/1-0|1-0-1-0-1-0-1-0-|--------|
A|--------------|----------------|--------|
E|--------------|----------------|--------|

[Chorus]
G|-----------|4-4-4-4-4-3|1-1-1-1-1--|--------3----|
D|3-3-3-3-3-1|-----------|----------6|5-5-5/1-0----|
A|-----------|-----------|-----------|-------------|
E|-----------|-----------|-----------|-------------|

G|-----------|4-4-4-4-4-3|1-1-1-1-1-|----3-3---|
D|3-3-3-3-3-1|-----------|---------6|5-5-5-----|
A|-----------|-----------|----------|----------|
E|-----------|-----------|----------|----------|

[Bridge]
G|--------|--------|--------|--------|--------|--------|--------|--------|
D|3-------|--------|3-------|--------|3-------|--------|3-------|--------|
A|--------|--------|--------|--------|--------|--------|--------|--------|
E|--------|--------|--------|--------|--------|--------|--------|--------|

"Where you go I go"
G|------------|-------------|----------|---------|
D|-----3------|-------------|1-1-2-2-3-|3-3-3-3-1|
A|3-3-3--3-3-5|6-6-6-6-6-6-6|----------|---------|
E|------------|-------------|----------|---------|

G|4-4-4-4-4-3|1-11----------|----------|-----------------3-3-3-3-|
D|-----------|--------------|----------|1/1-0-1-0-1-0-1-0-1-0----|
A|-----------|-----1h3-3-3-1|0-0-0-0-0-|-------------------------|
E|-----------|--------------|----------|-------------------------|

[Chorus]
G|-----------|4-4-4-4-4-3|1-1-1-1-1--|--------3-3---|
D|3-3-3-3-3-1|-----------|----------6|5-5-5/1-0-----|
A|-----------|-----------|-----------|--------------|
E|-----------|-----------|-----------|--------------|

G|-----------|4-4-4-4-4-3|1-1-1-1-1--|----------------------|
D|3-3-3-3-3-1|-----------|----------6|5-5-5/1-0-1-0-1-0-1-0-|
A|-----------|-----------|-----------|----------------------|
E|-----------|-----------|-----------|----------------------|

G|-----------|4-4-4-4-4-3|1-1-1-1-1--|-----3-3-------|
D|3-3-3-3-3-1|-----------|----------6|5-5-5----/1-0--|
A|-----------|-----------|-----------|---------------|
E|-----------|-----------|-----------|---------------|

G|-----------|4-4-4-4-4-3|1---------|3-------|-------|
D|3-3-3-3-3-1|-----------|----------|--------|3------|
A|-----------|-----------|----------|--------|-------|
E|-----------|-----------|----------|--------|-------|


************************************

| /  Slide up
| h  Hammer-on

************************************
Suggest correction
comments
print report bad tab
4 comments total. Showing first comments.
0 reply
Andsome 82 Feb 05, 2014 08:55 AM

Other than the fact it's upside down and therefore impossible to read, this isn't actually that bad.

0 reply
mailson.anselmo 10 Apr 18, 2016 09:11 AM

1:00 "For this is the end"

G|--------|--------|--------|--------|--------|--------|--------|---------|
D|10------|--------|10------|--------|10------|--------|--------|---------|
A|----11--|8-------|----11--|8-------|----11--|8-----6-|5-------|/10------|
E|--------|--------|--------|--------|--------|--------|--------|-----3-3-|
Chorus

|----------|----------|----------|--------|
|----------|----------|----------|--------|
|3-33-3-3-1|----------|---------6|5-5-----|
|----------|4-44-4-4-3|1-11-1-1--|----33--|

Var:
|----------|----------|----------|-----------|
|----------|----------|----------|-----------|
|3-33-3-3-1|----------|---------6|5-55/10----|
|----------|4-44-4-4-3|1-11-1-1--|--------3--|

Bridge:
|-----------|-----------|-----------|-----------|-----------|
|--56-3--33-|--56-3-333-|--56-3-333-|--56-3-333-|--56-3-333-|
|3------3---|3----------|3------3---|3------3---|3------3---|
|-----------|-----------|-----------|-----------|-----------|
"You can take my name"
|-----------|------------|--------|
|-----------|------------|--------|
|5-5-555-/10|10-10-10-10-|--------|
|-----------|------------|3-3-3-3-|
Chorus
|----------|----------|----------|-----------|
|----------|----------|----------|-----------|
|3-33-3-3-1|----------|---------6|5-55/10----|
|----------|4-44-4-4-3|1-11-1-1--|--------3--|

|----------|----------|----------|---------|
|----------|----------|----------|---------|
|3-33-3-3-1|----------|---------6|5-55-----|
|----------|4-44-4-4-3|1-11-1-1--|----33---|

Bridge
|--------|--------|--------|--------|--------|--------|--------|--------|
|--------|--------|--------|--------|--------|--------|--------|--------|
|3-------|--------|3-------|--------|3-------|--------|3-------|--------|
|--------|--------|--------|--------|--------|--------|--------|--------|

"Where you go I go"
|-----------|---------|--------|-------|
|3-33--3-3-5|6-66-6666|--------|-------|
|-----3-----|---------|1-122-3-|3-333-1|
|-----------|---------|--------|-------|
|----------|-------------|---------|-------------------------|
|----------|-----1h3-3-31|0-0-00-0-|-------------------------|
|----------|-------------|---------|1/10-10-10-10-10---------|
|4-44-4-4-3|1-11---------|---------|-----------------3-3-3-3-|

Chorus
|----------|----------|----------|-----------|
|----------|----------|----------|-----------|
|3-33-3-3-1|----------|---------6|5-55/10----|
|----------|4-44-4-4-3|1-11-1-1--|--------33-|

|----------|----------|----------|-----------------|
|----------|----------|----------|-----------------|
|3-33-3-3-1|----------|---------6|5-55/10-10-10-10-|
|----------|4-44-4-4-3|1-11-1-1--|-----------------|
|----------|----------|----------|------------|
|----------|----------|----------|------------|
|3-33-3-3-1|----------|---------6|5-55----/10-|
|----------|4-44-4-4-3|1-11-1-1--|-----33-----|

|----------|----------|----------|--------|-------|
|----------|----------|----------|--------|-------|
|3-33-3-3-1|----------|----------|--------|3------|
|----------|4-44-4-4-3|1---------|3-------|-------|

0 reply
mailson.anselmo 10 Apr 18, 2016 09:12 AM, edited at 09:12 am

inverted!

guest
You may want to rate the tab now too:
select rating
Wanna post a correction for this tab? Suggest correction