Oops, an error
Loading. Please wait.
We have an official Skyfall tab made by UG professional guitarists. Check out the tab »
×
by Adele
3,663 views 33 this week
1 commentread comment
1 2 3 4 5
x 4
add to favorites
×
Save as Personal and add changes to this tab that will be seen only by you. Learn more ›
×
You can save this tab as Personal to edit and correct it or add notes. All changes will be seen only by you. Learn more »
launch autoscroll
font size
0
reset
guitar tuner
edit
Autoscroll
slow
fast
+/-
esc
set tempo
stop
Author
               ---- I DO NOT OWN THE RIGHTS TO THIS SONG ----

Adele - Skyfall

Tuning: Standard E A D G

G]--------------7--1--1-------------------------0--0--5--5-----1------------]
D]---3--3--3----------------3--3--3--3--3--3----------------6---------------]
A]--------------------------------------------------------------------------]
E]--------------------------------------------------------------------------]

G]--------------10--10--10--5--5--1--1------------10--10--10--5--5--1--1----]
D]---3--3--3----------------------------3--3--3-----------------------------]
A]--------------------------------------------------------------------------]
E]--------------------------------------------------------------------------]


G]--------------10--10--10--5--5--1--1------------10--10--10--7--0--0-------]
D]---3--3--3----------------------------3--3--3-----------------------------]
A]--------------------------------------------------------------------------]
E]--------------------------------------------------------------------------]

G]---5--1----------------------5--1-----------------0-----------------------]
D]----------3---10-------3-----------3--1-------0---------------------------]
A]------------------11-----------------------5-------------1----------------]
E]------------------------------------------------------8-------4---3-------]

G]-----------0------------------------------0-------------------------1-----]
D]-----1--0---------------------------------------------------------------3-]
A]---------------3---1---------------6--5-----3--3--3---3--3--3---3---------]
E]--1---------------------4--3--1-------------------------------------------]

G]-----1----------1---------1-----------------0--0--------------------------]
D]--------3----------3----------3---0---------------------------------1-----]
A]--3---------3----------3---------------5-----------3--1-------------------]
E]----------------------------------------------------------4--3---1--------]

G]------0---------------------------0-------------------------0-------------]
D]--0------------------------1---0---------------------1---0----------------]
A]---------3--1------------------------3--1---------------------------------]
E]----------------4--3---1-------------------4--3---1-----------------------]

G]--------------------------------------------------------------------------]
D]--------------------------------------------------------------------------]
A]--3------3--3--3--3------3--3--3--3--3--3--3------------------------------]
E]-----8----------------8---------------------------------------------------]

            
            
Suggest correction
Creating personal tab
Creating personal tab
You can edit any tab online and save it as your Personal.

You can edit, replace or remove any tab part or add personal notes – all changes will be seen only by you.

Personal tabs can be accessed anytime from any device, even offline.
Learn more »
comments
print report bad tab
1 comment total.
0 reply
ajhockey31 10 Oct 26, 2015 04:12 PM

gjcjk hghgjhg gg hjghjg u hu hh jhj hjhgu ihku jonojnjn okn onjnjn o on nko knno noknoknmkpmkpmp mbjb knknk nkk knk

guest
You may want to rate the tab now too:
select rating
Wanna post a correction for this tab? Suggest correction