Oops, an error
Loading. Please wait.

Skyfall bass

version 4
version 4

Whole song

Interactive

by Adele
397 views 3 this week
no commentswrite comment
1 2 3 4 5
1 last vote to show rating
add to favorites
×
Save as Personal and add changes to this tab that will be seen only by you. Learn more ›
×
You can save this tab as Personal to edit and correct it or add notes. All changes will be seen only by you. Learn more »
launch autoscroll
font size
0
reset
guitar tuner
edit
Autoscroll
slow
fast
+/-
esc
set tempo
stop
Author
Difficulty
Artist : ADELE
Song : SKYFALL

Get the rhythm right before playing along.
Pretty easy and cool song.
Enjoy !

There are maybe a few mistakes but in generally, this may work through the entire song.

INTRO at 00:50

G||---------------------------
D||----------10---------------
A||----------------11----8----
E||---------------------------


PRE CHORUS 01:16

G||----------------------------------------
D||----------10----------------------------
A||----------------11---8----6--5----/10---
E||----------------------------------------

CHORUS 01:23 

G||--------------------------------------------------------------------------
D||--------------------------------------------------------------------------     x2
A||-----------3-3-3-3-3-3-1--------------------------------6-5-5-5-5---------
E||-----3-3---------------------4-4-4-4-4-4-3--1-1-1-1-1-1-----------3-------

VERSE 02:00

G||---------------------
D||--------5-6-----3----
A||------3--------------
E||---------------------

PRE CHORUS 02:22

G||----------------------------------------
D||----------------------------------------
A||------5-5-5-5-5-5-/--10-10-10-10-10-----
E||----------------------------------------


CHORUS 02:29 

G||--------------------------------------------------------------------------
D||--------------------------------------------------------------------------     x2
A||-----------3-3-3-3-3-3-1--------------------------------6-5-5-5-5---------
E||-----3-3---------------------4-4-4-4-4-4-3--1-1-1-1-1-1-----------3-------


PRE-BRIDGE 02:55

G||----------------------------------------
D||----------------------------------------
A||------(5)-------(5)------(5)-------(5)--
E||----------------------------------------

BRIDGE 3:18

G||------------------------------------------------------------------------------------------
D||-----3--33-333-/-5--6-66-666--------------------------------------------------------------    
A||-------------------------------------1---2----/-3-33-333/-1-------------------------------
E||--------------------------------------------------------------4-44-444-/-3--1-------------

PRE CHORUS 3:39

G||------------------------------------------------
D||------------------------------------------------
A||------5-5-5-5-5-5-/--10-10-10-10-10-------------
E||---------------------------------------3-3-3-3--


CHORUS 03:45 


G||--------------------------------------------------------------------------
D||--------------------------------------------------------------------------     x4
A||-----------3-3-3-3-3-3-1--------------------------------6-5-5-5-5---------
E||-----3-3---------------------4-4-4-4-4-4-3--1-1-1-1-1-1-----------3-------




END OF SONG ;) 

            
            
Suggest correction
Creating personal tab
Creating personal tab
You can edit any tab online and save it as your Personal.

You can edit, replace or remove any tab part or add personal notes – all changes will be seen only by you.

Personal tabs can be accessed anytime from any device, even offline.
Learn more »
Give kudos to tab author, rate the tab!
1 2 3 4 5
comments
print report bad tab
guest
You may want to rate the tab now too:
select rating
Wanna post a correction for this tab? Suggest correction