Oops, an error
Loading. Please wait.

Someone Like You Tab

208,794 views 105 this week
3 commentsread comments
1 2 3 4 5
accurate
x 32
add to favorites
launch autoscroll
font size
0
reset
how to read this tab
guitar tuner
Tab Pro tools
  • play this tab
  • loop segment
  • change instrument
  • show fretboard
  • metronome
×
Best way to learn
"Someone Like You"
Autoscroll
slow
fast
+/-
esc
set tempo
stop
Contributor
-------------------------------------------------------------------------------
                             SOMEONE LIKE YOU - Adele
-------------------------------------------------------------------------------
Tabbed by: 225Tracey
Email: monkeydodo96@hotmail.com

Tuning: Standard

    A                               A/Ab
e|------0-------0-------0-------0-------0-------0-------0-------0----|
B|----2---2---2---2---2---2---2---2---2---2---2---2---2---2---2---2--|
G|--2-------2-------2-------2-------1-------1-------1-------1--------|
D|-------------------------------------------------------------------|
A|-------------------------------------------------------------------|
E|-------------------------------------------------------------------|

    F#m                             D
e|------2-------2-------2-------2-------2-------2-------2-------2----|
B|----2---2---2---2---2---2---2---2---3---3---3---3---3---3---3---3--|
G|--4-------4-------4-------4----------------------------------------|
D|----------------------------------0-------0-------0-------0--------|
A|-------------------------------------------------------------------|
E|-------------------------------------------------------------------|
comments
print report bad tab
3 comments total.
0 reply
k1eny wrote on April 1 2012, 11:28 pm

Try playing the G string instead of the D string for the Final part(the "D" chord)

-1 reply
vanbeh wrote on June 1 2012, 07:21 am

Someone Like You tab.

Show Details
Intro:

E:------------------------------------------------------|
B:--------5-----------5-----------5-----------5---------|
G:-----6-----6-----6-----6-----6-----6-----6-----6------|
D:--7-----------7-----------7-----------7---------------|
A:--0---------------------------------------------------|
E:------------------------------------------------------|

E:---------------------------------------------------------|
B:--------5-----------5-----------5-----------5------------|
G:-----6-----6-----6-----6-----6-----6-----6-----6---------|
D:--6-----------6-----------6-----------6------------------|
A:---------------------------------------------------------|
E:--4------------------------------------------------------|

E:--------2-----------2-----------2-----------2------------|
B:-----2-----2-----2-----2-----2-----2-----2-----2---------|
G:---------------------------------------------------------|
D:--4-----------4-----------4-----------4------------------|
A:---------------------------------------------------------|
E:--2------------------------------------------------------|

E:--------2-----------2-----------2-----------2------------|
B:-----3-----3-----3-----3-----3-----3-----3-----3---------|
G:--2-----------2-----------2-----------2------------------|
D:--0------------------------------------------------------|
A:---------------------------------------------------------|
E:---------------------------------------------------------|

Verse:

E:------------------------------------------------------|
B:--------5-----------5-----------5-----------5---------|
G:-----6-----6-----6-----6-----6-----6-----6-----6------|
D:--7-----------7-----------7-----------7---------------|
A:--0---------------------------------------------------|
E:------------------------------------------------------|

E:---------------------------------------------------------|
B:--------5-----------5-----------5-----------5------------|
G:-----6-----6-----6-----6-----6-----6-----6-----6---------|
D:--6-----------6-----------6-----------6------------------|
A:---------------------------------------------------------|
E:--4------------------------------------------------------|

E:--------2-----------2-----------2-----------2------------|
B:-----2-----2-----2-----2-----2-----2-----2-----2---------|
G:---------------------------------------------------------|
D:--4-----------4-----------4-----------4------------------|
A:---------------------------------------------------------|
E:--2------------------------------------------------------|

E:--------2-----------2-----------2-----------2------------|
B:-----3-----3-----3-----3-----3-----3-----3-----3---------|
G:---------------------------------------------------------|
D:--4-----------4-----------4-----------4------------------|
A:--5------------------------------------------------------|
E:---------------------------------------------------------|

Repeat Verse pattern 3x except the last stanza with 1st Variation before Refrain:

1st Variation:

E:--------2-----------2-----------2-----------2------------|
B:---------------------------------------------------------|
G:-----2-----2-----2-----2-----2-----2-----2-----2---------|
D:--4-----------4-----------4-----------4------------------|
A:--5------------------------------------------------------|
E:---------------------------------------------------------|

Refrain:

E:--------0-----------0-----------0-----------0------------|
B:---------------------------------------------------------|
G:-----1-----1-----1-----1-----2-----2-----2-----2---------|
D:--4-----------4-----------4-----------4------------------|
A:---------------------------------------------------------|
E:--0-----------------------2------------------------------|

E:------------------------------------------------------|
B:--------3-----------3-----------3-----------3---------|
G:-----2-----2-----2-----2-----2-----2-----2-----2------|
D:--4-----------4-----------4-----------4---------------|
A:--5---------------------------------------------------|
E:------------------------------------------------------|

Repeat Refrain pattern 2x except last stanza with 2nd Variation before Chorus:

2nd Variation:

E:--------2-----------2-----------0-----------0-----------2-----------2-|
B:----------------------------------------------------------------------|
G:-----2-----2-----2-----2-----1-----1-----1-----1-----2-----2-----2----|
D:--4-----------4-----------4-----------4-----------4-----------4-------|
A:--5-------------------------------------------------------------------|
E:----------------------------------------------------------------------|

-1 reply
vanbeh wrote on June 1 2012, 07:21 am

Chorus:

E:--------------------5-----------4-----------4---------|
B:-----2-----2-----2-----2-----0-----0-----0-----0------|
G:--2-----2-----2-----------1-----------1---------------|
D:------------------------------------------------------|
A:--0---------------------------------------------------|
E:--------------------------0---------------------------|

E:--------5-----------5-----------5-----------5------------|
B:-----2-----2-----2-----2-----3-----3-----3-----3---------|
G:--2-----------2-----------2-----------2------------------|
D:--------------------------0------------------------------|
A:---------------------------------------------------------|
E:--2------------------------------------------------------|

3rd Variation Chorus:Repeat 2x
E:--------5-----------5-----------4-----------4---------|
B:-----2-----2-----2-----2-----5-----5-----5-----5------|
G:--2-----------2-----------4-----------4---------------|
D:------------------------------------------------------|
A:--0---------------------------------------------------|
E:--------------------------0---------------------------|

E:--------5-----------5-----------5-----------5------------|
B:-----2-----2-----2-----2-----3-----3-----3-----3---------|
G:--2-----------2-----------2-----------2------------------|
D:--------------------------0------------------------------|
A:---------------------------------------------------------|
E:--2------------------------------------------------------|

4th Variation Chorus:

E:--------5-----------5-----------4-----------4---------|
B:-----2-----2-----2-----2-----5-----5-----5-----5------|
G:--2-----------2-----------4-----------4---------------|
D:------------------------------------------------------|
A:--0---------------------------------------------------|
E:--------------------------0---------------------------|

E:--------2-----------2-----------2-----------2------------|
B:-----2-----2-----2-----2-----3-----3-----3-----3---------|
G:--2-----------2-----------2-----------2------------------|
D:--------------------------0------------------------------|
A:---------------------------------------------------------|
E:--2------------------------------------------------------|

E:--------0-----------0-----------0-----------0---------|
B:-----2-----2-----2-----2-----0-----0-----0-----0------|
G:--2-----------2-----------1-----------1---------------|
D:------------------------------------------------------|
A:--0---------------------------------------------------|
E:--------------------------0---------------------------|

E:--------2-----------2-----------2-----------2-----|
B:-----2-----2-----2-----2-----3-----3-----3-----3--|
G:--2-----------2-----------2-----------2-----------|
D:--------------------------0-----------------------|
A:--------------------------------------------------|
E:--2-----------------------------------------------|

E:--------2-----------2-----------|
B:-----3-----3-----3-----3--------|
G:--2-----------2-----------------|
D:--------------------------------|
A:--------------------------------|
E:--------------------------------|

Repeat Verse,Refrain,Chorus and Variation patterns for Verse 2:

5th Variation Refrain:

E:--------0-----------0-----------0-----------0------------|
B:---------------------------------------------------------|
G:-----1-----1-----1-----1-----2-----2-----2-----2---------|
D:--4-----------4-----------4-----------4------------------|
A:---------------------------------------------------------|
E:--0-----------------------2------------------------------|

E:------------------------------------------------------|
B:--------3-----------3-----------3-----------3---------|
G:-----2-----2-----2-----2-----2-----2-----2-----2------|
D:--4-----------4-----------4-----------4---------------|
A:--5---------------------------------------------------|
E:------------------------------------------------------|

E:--------0-----------0-----------0-----------0------------|
B:---------------------------------------------------------|
G:-----1-----1-----1-----1-----2-----2-----2-----2---------|
D:--4-----------4-----------4-----------4------------------|
A:---------------------------------------------------------|
E:--0-----------------------2------------------------------|

E:--------------------------------0-----------0-----------2-----------2---|
B:--------3-----------3---------------------------------------------------|
G:-----2-----2-----2-----2-----1-----1-----1-----1-----2-----2-----2-----2|
D:--4-----------4-----------4-----------4-----------4-----------4---------|
A:--5---------------------------------------------------------------------|
E:------------------------------------------------------------------------|

E:--------4-----------4----------|
B:---------------- ---------------|
G:-----4-----4-----4-----4-------|
D:--4-----------4----------------|
A:-------------------------------|
E:-------------------------------|

I want to post or [tab]
guest
You may want to rate the tab now too:
select rating
Please do not post tabs as comments. Select "correction" instead!