Oops, an error
Loading. Please wait.

Someone Like You Tab

63,004 views 18 this week
2 commentsread comments
1 2 3 4 5
worth learning
x 5
add to favorites
launch autoscroll
font size
0
reset
how to read this tab
guitar tuner
Autoscroll
slow
fast
+/-
esc
set tempo
stop
Help us to improve Ultimate-Guitar.com Take our survey!
×
Author
Difficulty
-------------------------------------------------------------------------------
                             Someone Like You - Adele
-------------------------------------------------------------------------------
Email:slash.joanne@gmail.com

This is my first tab so is not 100% right. I figure this out by ear. 
If there is any correction I need to make please email me :) 

Tuning: standard

e|----------------------------------------------------------------------------|
B|----------------------------------------------------------------------------|
G|--7-10-7---7-10-7---7-10-7---7-10-7-----7-10-7---7-10-7---7-10-7---7-10-7---|
D|8--------8--------8--------8----------7--------7--------7--------7----------|
A|----------------------------------------------------------------------------|
E|----------------------------------------------------------------------------|

e|---------------------------------------------------------------------------|
B|----8-------8-------8-------8---------8-------8-------8-------8------------|
G|--7---7---7---7---7---7---7---7-----7---7---7---7---7---7---7---7----------|
D|5-------5-------5-------5---------8-------8-------8-------8----------------|
A|----------------------------------(not really sure about this part. )------|
E|---------------------------------------------------------------------------|

Just repeat it until it changes lol. 
Suggest correction
What's this?
You can suggest a correction to this tab. Community and Mods will review your correction and vote to approve or reject it.
comments
print report bad tab
2 comments total.
0 reply
vanbeh 85 wrote on June 1 2012, 07:23 am

Someone Like You tab.

Show Details
Intro:

E:------------------------------------------------------|
B:--------5-----------5-----------5-----------5---------|
G:-----6-----6-----6-----6-----6-----6-----6-----6------|
D:--7-----------7-----------7-----------7---------------|
A:--0---------------------------------------------------|
E:------------------------------------------------------|

E:---------------------------------------------------------|
B:--------5-----------5-----------5-----------5------------|
G:-----6-----6-----6-----6-----6-----6-----6-----6---------|
D:--6-----------6-----------6-----------6------------------|
A:---------------------------------------------------------|
E:--4------------------------------------------------------|

E:--------2-----------2-----------2-----------2------------|
B:-----2-----2-----2-----2-----2-----2-----2-----2---------|
G:---------------------------------------------------------|
D:--4-----------4-----------4-----------4------------------|
A:---------------------------------------------------------|
E:--2------------------------------------------------------|

E:--------2-----------2-----------2-----------2------------|
B:-----3-----3-----3-----3-----3-----3-----3-----3---------|
G:--2-----------2-----------2-----------2------------------|
D:--0------------------------------------------------------|
A:---------------------------------------------------------|
E:---------------------------------------------------------|

Verse:

E:------------------------------------------------------|
B:--------5-----------5-----------5-----------5---------|
G:-----6-----6-----6-----6-----6-----6-----6-----6------|
D:--7-----------7-----------7-----------7---------------|
A:--0---------------------------------------------------|
E:------------------------------------------------------|

E:---------------------------------------------------------|
B:--------5-----------5-----------5-----------5------------|
G:-----6-----6-----6-----6-----6-----6-----6-----6---------|
D:--6-----------6-----------6-----------6------------------|
A:---------------------------------------------------------|
E:--4------------------------------------------------------|

E:--------2-----------2-----------2-----------2------------|
B:-----2-----2-----2-----2-----2-----2-----2-----2---------|
G:---------------------------------------------------------|
D:--4-----------4-----------4-----------4------------------|
A:---------------------------------------------------------|
E:--2------------------------------------------------------|

E:--------2-----------2-----------2-----------2------------|
B:-----3-----3-----3-----3-----3-----3-----3-----3---------|
G:---------------------------------------------------------|
D:--4-----------4-----------4-----------4------------------|
A:--5------------------------------------------------------|
E:---------------------------------------------------------|

Repeat Verse pattern 3x except the last stanza with 1st Variation before Refrain:

1st Variation:

E:--------2-----------2-----------2-----------2------------|
B:---------------------------------------------------------|
G:-----2-----2-----2-----2-----2-----2-----2-----2---------|
D:--4-----------4-----------4-----------4------------------|
A:--5------------------------------------------------------|
E:---------------------------------------------------------|

Refrain:

E:--------0-----------0-----------0-----------0------------|
B:---------------------------------------------------------|
G:-----1-----1-----1-----1-----2-----2-----2-----2---------|
D:--4-----------4-----------4-----------4------------------|
A:---------------------------------------------------------|
E:--0-----------------------2------------------------------|

E:------------------------------------------------------|
B:--------3-----------3-----------3-----------3---------|
G:-----2-----2-----2-----2-----2-----2-----2-----2------|
D:--4-----------4-----------4-----------4---------------|
A:--5---------------------------------------------------|
E:------------------------------------------------------|

Repeat Refrain pattern 2x except last stanza with 2nd Variation before Chorus:

2nd Variation:

E:--------2-----------2-----------0-----------0-----------2-----------2-|
B:----------------------------------------------------------------------|
G:-----2-----2-----2-----2-----1-----1-----1-----1-----2-----2-----2----|
D:--4-----------4-----------4-----------4-----------4-----------4-------|
A:--5-------------------------------------------------------------------|
E:----------------------------------------------------------------------|

0 reply
vanbeh 85 wrote on June 1 2012, 07:23 am

Chorus:

E:--------------------5-----------4-----------4---------|
B:-----2-----2-----2-----2-----0-----0-----0-----0------|
G:--2-----2-----2-----------1-----------1---------------|
D:------------------------------------------------------|
A:--0---------------------------------------------------|
E:--------------------------0---------------------------|

E:--------5-----------5-----------5-----------5------------|
B:-----2-----2-----2-----2-----3-----3-----3-----3---------|
G:--2-----------2-----------2-----------2------------------|
D:--------------------------0------------------------------|
A:---------------------------------------------------------|
E:--2------------------------------------------------------|

3rd Variation Chorus:Repeat 2x
E:--------5-----------5-----------4-----------4---------|
B:-----2-----2-----2-----2-----5-----5-----5-----5------|
G:--2-----------2-----------4-----------4---------------|
D:------------------------------------------------------|
A:--0---------------------------------------------------|
E:--------------------------0---------------------------|

E:--------5-----------5-----------5-----------5------------|
B:-----2-----2-----2-----2-----3-----3-----3-----3---------|
G:--2-----------2-----------2-----------2------------------|
D:--------------------------0------------------------------|
A:---------------------------------------------------------|
E:--2------------------------------------------------------|

4th Variation Chorus:

E:--------5-----------5-----------4-----------4---------|
B:-----2-----2-----2-----2-----5-----5-----5-----5------|
G:--2-----------2-----------4-----------4---------------|
D:------------------------------------------------------|
A:--0---------------------------------------------------|
E:--------------------------0---------------------------|

E:--------2-----------2-----------2-----------2------------|
B:-----2-----2-----2-----2-----3-----3-----3-----3---------|
G:--2-----------2-----------2-----------2------------------|
D:--------------------------0------------------------------|
A:---------------------------------------------------------|
E:--2------------------------------------------------------|

E:--------0-----------0-----------0-----------0---------|
B:-----2-----2-----2-----2-----0-----0-----0-----0------|
G:--2-----------2-----------1-----------1---------------|
D:------------------------------------------------------|
A:--0---------------------------------------------------|
E:--------------------------0---------------------------|

E:--------2-----------2-----------2-----------2-----|
B:-----2-----2-----2-----2-----3-----3-----3-----3--|
G:--2-----------2-----------2-----------2-----------|
D:--------------------------0-----------------------|
A:--------------------------------------------------|
E:--2-----------------------------------------------|

E:--------2-----------2-----------|
B:-----3-----3-----3-----3--------|
G:--2-----------2-----------------|
D:--------------------------------|
A:--------------------------------|
E:--------------------------------|

Repeat Verse,Refrain,Chorus and Variation patterns for Verse 2:

5th Variation Refrain:

E:--------0-----------0-----------0-----------0------------|
B:---------------------------------------------------------|
G:-----1-----1-----1-----1-----2-----2-----2-----2---------|
D:--4-----------4-----------4-----------4------------------|
A:---------------------------------------------------------|
E:--0-----------------------2------------------------------|

E:------------------------------------------------------|
B:--------3-----------3-----------3-----------3---------|
G:-----2-----2-----2-----2-----2-----2-----2-----2------|
D:--4-----------4-----------4-----------4---------------|
A:--5---------------------------------------------------|
E:------------------------------------------------------|

E:--------0-----------0-----------0-----------0------------|
B:---------------------------------------------------------|
G:-----1-----1-----1-----1-----2-----2-----2-----2---------|
D:--4-----------4-----------4-----------4------------------|
A:---------------------------------------------------------|
E:--0-----------------------2------------------------------|

E:--------------------------------0-----------0-----------2-----------2---|
B:--------3-----------3---------------------------------------------------|
G:-----2-----2-----2-----2-----1-----1-----1-----1-----2-----2-----2-----2|
D:--4-----------4-----------4-----------4-----------4-----------4---------|
A:--5---------------------------------------------------------------------|
E:------------------------------------------------------------------------|

E:--------4-----------4----------|
B:---------------- ---------------|
G:-----4-----4-----4-----4-------|
D:--4-----------4----------------|
A:-------------------------------|
E:-------------------------------|

guest
You may want to rate the tab now too:
select rating
Please do not post tabs as comments. Select "correction" instead!