Oops, an error
Loading. Please wait.

Someone Like You Tab

version 11
88 views 9 this week
no commentswrite comment
1 2 3 4 5
3 more votes to show rating
add to favorites
launch autoscroll
font size
0
reset
how to read this tab
guitar tuner
Autoscroll
slow
fast
+/-
esc
set tempo
stop
Help us to improve Ultimate-Guitar.com Take our survey!
×
Author
Difficulty
intermediate
SOMEONE LIKE YOU

As recorded by Adele
(From the 2011 Album 21)

Words and Music by Adele Adkins & Daniel Wilson

Transcribed by Slowhand


Gtr I (E A D G B E) - 'Piano'


 Intro
  H=66
  A                                     C#m/G#
 4/4
  Gtr I (Piano arr. for Gtr.)
  E E E E E E E E    E  E E E E E E E   E E E E E E E E    E  E E E E E E E
|-----0-------0---|-------0-------0---|-----------------|-------------------|
|---2---2---2---2-|-----2---2---2---2-|-----5-------5---|-------5-------5---|
|-2-------2-------|--2--------2-------|---6---6---6---6-|-----6---6---6---6-|
|-----------------|-------------------|-6-------6-------|--6--------6-------|
|-0---------------|-(0)---------------|-----------------|-------------------|
|-----------------|-------------------|-4---------------|-(4)---------------|
  W                 +W                  W                 +W


  F#m                                   D
  E E E E E E E E    E  E E E E E E E   E E E E E E E E    E  E E E E E E E
|-----2-------2---|-------2-------2---|-----2-------2---|-------2-------2----||
|---2---2---2---2-|-----2---2---2---2-|---3---3---3---3-|-----3---3---3---3--||
|---------2-------|--2--------2-------|-2-------2-------|--2--------2--------||
|-4---------------|-------------------|-0---------------|-(0)----------------||
|-----------------|-------------------|-----------------|--------------------||
|-2---------------|-(2)---------------|-----------------|--------------------||
  W                 +W                  W                 +W


 1st Verse
  A                                     C#m/G#
  E E E E E E E E    E  E E E E E E E   E E E E E E E E    E  E E E E E E E
|-----0-------0---|-------0-------0---|-----------------|--------------------|
|---2---2---2---2-|-----2---2---2---2-|-----5-------5---|-------5-------5----|
|-2-------2-------|--2--------2-------|---6---6---6---6-|-----6---6---6---6--|
|-----------------|-------------------|-6-------6-------|--6--------6--------|
|-0---------------|-(0)---------------|-----------------|--------------------|
|-----------------|-------------------|-4---------------|-(4)----------------|
  W                 +W                  W                 +W


  F#m                                   D
  E E E E E E E E    E  E E E E E E E   E E E E E E E E    E  E E E E E E E
|-----2-------2---|-------2-------2---|-----2-------2---|-------2-------2----|
|---2---2---2---2-|-----2---2---2---2-|---3---3---3---3-|-----3---3---3---3--|
|---------2-------|--2--------2-------|-----------------|--------------------|
|-4---------------|-------------------|-4-------4-------|--4--------4--------|
|-----------------|-------------------|-5---------------|-(5)----------------|
|-2---------------|-(2)---------------|-----------------|--------------------|
  W                 +W                  W                 +W


   1st & 2nd Verses
    A                                     C#m/G#
    E E E E E E E E    E  E E E E E E E   E E E E E E E E    E  E E E E E E E
||------0-------0---|-------0-------0---|-----------------|-------------------|
||o---2---2---2---2-|-----2---2---2---2-|-----5-------5---|-------5-------5---|
||--2-------2-------|--2--------2-------|---6---6---6---6-|-----6---6---6---6-|
||------------------|-------------------|-6-------6-------|--6--------6-------|
||o-0---------------|-(0)---------------|-----------------|-------------------|
||------------------|-------------------|-4---------------|-(4)---------------|
    W                 +W                  W                 +W


  F#m                                   D
  E E E E E E E E    E  E E E E E E E   E E E E E E E E    E  E E E E E E E
|-----2-------2---|-------2-------2---|-----2-------2---|-------2-------2----|
|---2---2---2---2-|-----2---2---2---2-|---3---3---3---3-|-----3---3---3---3--|
|---------2-------|--2--------2-------|-----------------|--------------------|
|-4---------------|-------------------|-4-------4-------|--4--------4--------|
|-----------------|-------------------|-5---------------|-(5)----------------|
|-2---------------|-(2)---------------|-----------------|--------------------|
  W                 +W                  W                 +W


  A                                     C#m/G#
  E E E E E E E E    E  E E E E E E E   E E E E E E E E    E  E E E E E E E
|-----0-------0---|-------0-------0---|-----------------|--------------------|
|---2---2---2---2-|-----2---2---2---2-|-----5-------5---|-------5-------5----|
|-2-------2-------|--2--------2-------|---6---6---6---6-|-----6---6---6---6--|
|-----------------|-------------------|-6-------6-------|--6--------6--------|
|-0---------------|-(0)---------------|-----------------|--------------------|
|-----------------|-------------------|-4---------------|-(4)----------------|
  W                 +W                  W                 +W


  F#m                                   D
  E E E E E E E E    E  E E E E E E E   E E E E E E E E    E  E E E E E E E
|-----2-------2---|-------2-------2---|-----2-------2---|-------2-------2----||
|---2---2---2---2-|-----2---2---2---2-|---3---3---3---3-|-----3---3---3---3--||
|---------2-------|--2--------2-------|-----------------|--------------------||
|-4---------------|-------------------|-4-------4-------|--4--------4--------||
|-----------------|-------------------|-5---------------|-(5)----------------||
|-2---------------|-(2)---------------|-----------------|--------------------||
  W                 +W                  W                 +W


 Pre-Chorus
  Eadd9             F#m7              D
  E E E E E E E E   E E E E E E E E   E E E E E E E E    E  E E E E E E E
|-----0-------0---|-----0-------0---|-----------------|--------------------|
|-----------------|-----------------|-----3-------3---|-------3-------3----|
|---1---1---1---1-|---2---2---2---2-|---2---2---2---2-|-----2---2---2---2--|
|-4-------4-------|-4-------4-------|-4-------4-------|--4--------4--------|
|-----------------|-----------------|-5---------------|-(5)----------------|
|-0---------------|-2---------------|-----------------|--------------------|
  W                 W                 W                 +W


  Eadd9             F#m7              D                 Dadd9
  E E E E E E E E   E E E E E E E E   E E E E E E E E    E  E E E E E E E
|-----0-------0---|-----0-------0---|-----2-------2---|-------0-------0----|
|-----------------|-----------------|-----------------|--------------------|
|---1---1---1---1-|---2---2---2---2-|---2---2---2---2-|-----2---2---2---2--|
|-4-------4-------|-4-------4-------|-4-------4-------|--4--------4--------|
|-----------------|-----------------|-5---------------|-(5)----------------|
|-0---------------|-2---------------|-----------------|--------------------|
  W                 W                 W                 +W


                                        Chorus
                                      $
  D                   G#m7b5/D           A                 E
   E  E E E E E E E   E E E E E E E E    E E E E E E E E   E E E E E E E E
|-------2-------2---|-----4-------4---||-----5-------5---|-----4-------4----|
|-------------------|-----------------||---2---2---2---2-|---0---0---0---0--|
|-----2---2---2---2-|---4---4---4---4-||-2-------2-------|-1-------1--------|
|--4--------4-------|-4-------4-------||-----------------|------------------|
|-(5)---------------|-5---------------||-0---------------|------------------|
|-------------------|-----------------||-----------------|-0----------------|
  +W                                     W                 W


  F#m               D5                A                 E
  E E E E E E E E   E E E E E E E E   E E E E E E E E   E E E E E E E E
|-----5-------5---|-----5-------5---|-----5-------5---|-----4-------4----|
|---2---2---2---2-|---3---3---3---3-|---2---2---2---2-|---5---5---5---5--|
|-2-------2-------|-2-------2-------|-2-------2-------|-4-------4--------|
|-----------------|-----------------|-----------------|------------------|
|-----------------|-0---------------|-0---------------|------------------|
|-2---------------|-----------------|-----------------|-0----------------|
  W                 W                 W                 W


  F#m               D5                A                 E
  E E E E E E E E   E E E E E E E E   E E E E E E E E   E E E E E E E E
|-----5-------5---|-----5-------5---|-----5-------5---|-----4-------4----|
|---2---2---2---2-|---3---3---3---3-|---2---2---2---2-|---5---5---5---5--|
|-2-------2-------|-2-------2-------|-2-------2-------|-4-------4--------|
|-----------------|-----------------|-----------------|------------------|
|-----------------|-0---------------|-0---------------|------------------|
|-2---------------|-----------------|-----------------|-0----------------|
  W                 W                 W                 W


  F#m               D5                A                 E
  E E E E E E E E   E E E E E E E E   E E E E E E E E   E E E E E E E E
|-----5-------5---|-----5-------5---|-----5-------5---|-----4-------4----|
|---2---2---2---2-|---3---3---3---3-|---2---2---2---2-|---5---5---5---5--|
|-2-------2-------|-2-------2-------|-2-------2-------|-4-------4--------|
|-----------------|-----------------|-----------------|------------------|
|-----------------|-0---------------|-0---------------|------------------|
|-2---------------|-----------------|-----------------|-0----------------|
  W                 W                 W                 W


                    1.
           To Coda
  F#m                D                 A                 E
  E E E E E E E E    E E E E E E E E   E E E E E E E E   E E E E E E E E
|-----2-------2----|-----2-------2---|-----0-------0---|-----0-------0---|
|---2---2---2---2--|---3---3---3---3-|---2---2---2---2-|---0---0---0---0-|
|-2-------2--------|-2-------2-------|-2-------2-------|-1-------1-------|
|------------------|-0---------------|-----------------|-----------------|
|------------------|-----------------|-0---------------|-----------------|
|-2----------------|-----------------|-----------------|-0---------------|
  W                  W                 W                 W


                                                           2.
  F#m               D
  E E E E E E E E   E E E E E E E E    E  E E E E E E E     E E E E E E E E
|-----2-------2---|-----2-------2---|-------2-------2----||-----5-------5----|
|---2---2---2---2-|---3---3---3---3-|-----3---3---3---3-o||---3---3---3---3--|
|-2-------2-------|-2-------2-------|--2--------2--------||-2-------2--------|
|-----------------|-0---------------|-(0)----------------||------------------|
|-----------------|-----------------|-------------------o||-0----------------|
|-2---------------|-----------------|--------------------||------------------|
  W                 W                 +W                    W


 Bridge
  E                                     F#m/C#
  E E E E E E E E    E  E E E E E E E   E E E E E E E E    E  E E E E E E E
|-----0-------0---|-------0-------0---|-----2-------2---|-------2-------2----|
|---0---0---0---0-|-----0---0---0---0-|---2---2---2---2-|-----2---2---2---2--|
|-1-------1-------|--1--------1-------|-2-------2-------|--2--------2--------|
|-----------------|-------------------|-----------------|--------------------|
|-----------------|-------------------|-4---------------|-(4)----------------|
|-0---------------|-(0)---------------|-----------------|--------------------|
  W                 +W                  W                 +W


  D5                                    Bm                A/C#
  E E E E E E E E    E  E E E E E E E   E E E E E E E E   E E E E E E E E
|-----5-------5---|-------5-------5---|-----7-------7---|-----5-------5----|
|---3---3---3---3-|-----3---3---3---3-|---7---7---7---7-|---5---5---5---5--|
|-2-------2-------|--2--------2-------|-----------------|-6-------6--------|
|-----------------|-------------------|-9-------9-------|------------------|
|-0---------------|-(0)---------------|-----------------|-4----------------|
|-----------------|-------------------|-7---------------|------------------|
  W                 +W                  W                 W


                                        Chorus
                    rall. H=40        a tempo H=66
  D                 E7/D                 A          E/G#
  E E E E E E E E    E  E E E E E E E    W          W
|-----5-------5---|-------7-------7---||-5--------|-4----|
|---7---7---7---7-|-----9---9---9---9-||-5--------|-5----|
|-7-------7-------|--9--------9-------||-6--------|-4----|
|-0---------------|-(0)---------------||----------|------|
|-----------------|-------------------||-0--------|------|
|-----------------|-------------------||----------|-4----|
  W                 +W


  F#m        D          A          E/G#
  W          W          W          W
|-2--------|-2--------|-5--------|-4----|
|-2--------|-3--------|-5--------|-5----|
|-2--------|-2--------|-6--------|-4----|
|----------|-0--------|----------|------|
|----------|----------|-0--------|------|
|-2--------|----------|----------|-4----|


  F#m        D           A             E/G#
  W          H    H      Q  Q  Q  Q    Q  Q  Q  Q
|-2--------|-2---------|-5-----5-----|-4-----4------|
|-2--------|-3----3----|----5-----5--|----5-----5---|
|-2--------|-2----2----|----6-----6--|----4-----4---|
|----------|-0---------|-------------|--------------|
|----------|-----------|-0-----------|--------------|
|-2--------|-----------|-------------|-0------------|
                         W             W


  F#m           D5            A             E/G#
  Q  Q  Q  Q    Q  Q  Q  Q    Q  Q  Q  Q    Q  Q  Q  Q
|-5-----5-----|-5-----5-----|-5-----5-----|-4-----4------|
|----2-----2--|----3-----3--|----5-----5--|----5-----5---|
|----2-----2--|----2-----2--|----6-----6--|----4-----4---|
|-------------|-0-----------|-------------|--------------|
|-------------|-------------|-0-----------|--------------|
|-2-----------|-------------|-------------|-0------------|
  W             W             W             W


               D.S. al Coda &
  F#m           D              D                   A
  Q  Q  Q  Q    Q  Q  Q  Q     E E E E E E E E   E E E E E E E E
|-2-----2-----|-2-----2-----||-----------------|------------------|
|----2-----2--|----3-----3--||-----3-------3---|-----2-------2----|
|----2-----2--|----2-----2--||---2---2---2---2-|---2---2---2---2--|
|-------------|-0-----------||-4-------4-------|-2-------2--------|
|-------------|-------------||-5---------------|-0----------------|
|-2-----------|-------------||-----------------|------------------|
  W             W              W                 W


                                      Outro
  E                 F#m                D
  E E E E E E E E   E E E E E E E E    E E E E E E E E   E E E E E E E E
|-----------------|-----------------||-----------------|------------------|
|-----0-------0---|-----2-------2---||-----------------|------------------|
|---1---1---1---1-|---2---2---2---2-||-----2-------2---|-----2-------2----|
|-2-------2-------|-4-------4-------||---4---4---4---4-|---4---4---4---4--|
|-----------------|-----------------||-5-------5-------|-5-------5--------|
|-0---------------|-2---------------||-----------------|------------------|
  W                 W


  G#°/D             A/D               D
  E E E E E E E E   E E E E E E E E   E E E E E E E E
|-----------------|-----------------|-----------------|
|-----0-------0---|-----2-------2---|-----3-------3---|
|---1---1---1---1-|---2---2---2---2-|-----------------|
|-0-------0-------|-0-------0-------|---4---4---4---4-|
|-----------------|-----------------|-5-------5-------|
|-----------------|-----------------|-----------------|


                    A
  E E E E E E E E   W          +W
|-----------------|----------|--------*|
|-----3-------3---|-2--------|-(2)----*|
|-----------------|-2--------|-(2)----*|
|---4---4---4---4-|-2--------|-(2)----*|
|-5-------5-------|-0--------|-(0)----*|
|-----------------|----------|--------*|


Duration Legend
---------------
W - whole; H - half; Q - quarter; E - 8th; S - 16th; T - 32nd; X - 64th; a - acciaccatura
+ - note tied to previous; . - note dotted; .. - note double dotted
Uncapitalized letters represent notes that are staccato (1/2 duration)
Irregular groupings are notated above the duration line
Duration letters will always appear directly above the note/fret number it represents the
duration for.  Duration letters with no fret number below them represent rests.  Multi-
bar rests are notated in the form Wxn, where n is the number of bars to rest for.  Low
melody durations appear below the staff

Tablature Legend
----------------
 h   - hammer-on
 p   - pull-off
 b   - bend
 pb  - pre-bend
 r   - bend release (if no number after the r, then release immediately)
 /\  - slide into or out of (from/to "nowhere")
 s   - legato slide
 S   - shift slide
  - natural harmonic
[n]  - artificial harmonic
n(n) - tapped harmonic
 ~   - vibrato
 tr  - trill
 T   - tap
 TP  - trem. picking
 PM  - palm muting
\n/  - tremolo bar dip; n = amount to dip
 \n  - tremolo bar down
 n/  - tremolo bar up
/n\  - tremolo bar inverted dip
 =   - hold bend; also acts as connecting device for hammers/pulls
 <>  - volume swell (louder/softer)
 x   - on rhythm slash represents muted slash
 o   - on rhythm slash represents single note slash

Misc Legend
-----------
 |  - bar
||  - double bar
||o - repeat start
o|| - repeat end
*|  - double bar (ending)
 :  - bar (freetime)
 $  - Segno
 &  - Coda
Tempo markers -  = BPM(8/16=s8/s16), where s8 = swing 8ths, s16 = swing 16ths




I heard that you're settled down, 
That you found a girl and you're married now.
I heard that your dreams came true.
Guess she gave you things I didn't give to you.

Old friend, why are you so shy?
Ain't like you to hold back or hide from the light.

I hate to turn up out of the blue uninvited, 
But I couldn't stay away, I couldn't fight it.
I had hoped you'd see my face and that you'd be reminded, 
That for me, it isn't over.

Never mind, I'll find someone like you.
I wish nothing but the best for you two.
Don't forget me, I beg, I remember you said, 
"Sometimes it lasts in love, but sometimes it hurts instead"
Sometimes it lasts in love, but sometimes it hurts instead, yeah.

You'd know how the time flies.
Only yesterday was the time of our lives.
We were born and raised in a summer haze, 
Bound by the surprise of our glory days.

I hate to turn up out of the blue uninvited, 
But I couldn't stay away, I couldn't fight it.
I had hoped you'd see my face & that you'd be reminded, 
That for me, it isn't over.

Never mind, I'll find someone like you.
I wish nothing but the best for you two.
Don't forget me, I beg, I remember you said, 
"Sometimes it lasts in love but sometimes it hurts instead", yay.

Nothing compares, no worries or cares.
Regrets and mistakes they're memories made.
Who would have known how bittersweet this would taste?

Never mind, I'll find someone like you.
I wish nothing but the best for you.
Don't forget me, I beg, I remember you said, 
"Sometimes it lasts in love, but sometimes it hurts instead"

Never mind, I'll find someone like you.
I wish nothing but the best for you two.
Don't forget me, I beg, I remember you said, 
"Sometimes it lasts in love, but sometimes it hurts instead"
Sometimes it lasts in love, but sometimes it hurts instead, yeah.
Suggest correction
Give kudos to tab author, rate the tab!
1 2 3 4 5
comments
print report bad tab
guest
You may want to rate the tab now too:
select rating
Wanna post a correction for this tab? Suggest correction