Oops, an error
Loading. Please wait.
We have Chord Pro version of Someone Like You.
It's the closest thing you can get to the original song and it has interactive parts. Check out the tab »
×
by Adele
23,699 views 3 this week
2 commentsread comments
1 2 3 4 5
x 3
add to favorites
launch autoscroll
font size
0
reset
how to read this tab
guitar tuner
Autoscroll
slow
fast
+/-
esc
set tempo
stop
Author
Difficulty
novice
Adele
Someone Like You

Tuning: EADGBe


The Intro is just the Verse through once.


Verse: x2

e| ---------------------------------------------------------------------|
B| ------5-------5-------5-------5---------5-------5-------5-------5----|
G| ----6---6---6---6---6---6---6---6-----6---6---6---6---6---6---6---6--|
D| --7-------7-------7-------7---------6-------6-------6-------6--------|
A| ---------------------------------------------------------------------|
E| ---------------------------------------------------------------------|

e| ---------------------------------------------------------------------|
B| ------7-------7-------7-------7---------7-------7-------7-------7----|
G| ----6---6---6---6---6---6---6---6-----7---7---7---7---7---7---7---7--|
D| --4-------4-------4-------4---------7-------7-------7-------7--------|
A| ---------------------------------------------------------------------|
E| ---------------------------------------------------------------------|


Bridge:

e| ---------------------------------------------------------------------|
B| ---------------------------------------------------------------------|
G| ------9-------9--------10---------10--------7-------7-------7--------|
D| ----9---9---9---9---10----10---10----10---7---7---7---7---7---7------|
A| --7-------7-------9----------9----------5-------5-------5------------|
E| ---------------------------------------------------------------------|

e| ---------------------------------------------------------------------|
B| ---------------------------------------------------------------------|
G| ------7---------9-------9--------10---------10----------11-----------|
D| ----7---7-----9---9---9---9---10----10---10----10----12----12--------|
A| --5---------7-------7-------9----------9----------12-----------------|
E| ---------------------------------------------------------------------|

e| ---------------------------------------------------------------------|
B| ---------------------------------------------------------------------|
G| -------11--------9-------9--------10---------10----------------------|
D| ----12----12---9---9---9---9---10----10---10----10-------------------|
A| -12----------7-------7-------9----------9----------------------------|
E| ---------------------------------------------------------------------|

Note: The second time the bridge is played, add this part to the end:

                                    +
e| ---------------------------------------------------------------------|
B| --------9-------9----------------------------------------------------|
G| ------9---9---9---9--------------------------------------------------|
D| ----9-------9--------------------------------------------------------|
A| ---------------------------------------------------------------------|
E| ---------------------------------------------------------------------|

Chorus: x4

e| ---------------------------------------------------------------------|
B| -------10-------10-------9-------9-----------------------------------|
G| -----9----9---9----9---9---9---9---9------10---------10--------------|
D| ---7--------7--------6-------6---------10----10---10----10-----------|
A| -------------------------------------9----------9--------------------|
E| ---------------------------------------------------------------------|

e| ---------------------------------------------------------------------|
B| ------7-------7------------------------------------------------------|
G| ----7---7---7---7----------------------------------------------------|
D| --7-------7----------------------------------------------------------|
A| ---------------------------------------------------------------------|
E| ---------------------------------------------------------------------|

End Bridge:

e| ---------------------------------------------------------------------|
B| ---------------------------------------------------------------------|
G| ------9-------9-------9-------9--------10---------10---------10------|
D| ----9---9---9---9---9---9---9---9---10----10---10----10---10---10----|
A| --7-------7-------7-------7-------9----------9----------9------------|
E| ---------------------------------------------------------------------|

e| ---------------------------------------------------------------------|
B| ---------------------------------------------------------------------|
G| -------10----------11----------11----------11----------11------------|
D| ----10----10----12----12----12----12----12----12----12----12---------|
A| --9----------12----------12----------12----------12------------------|
E| ---------------------------------------------------------------------|

e| ---------------------------------------------------------------------|
B| ---------------------------------------------------------------------|
G| --------16----------16---------10---------10----------11-------------|
D| -----14----14----14----14---10----10---10----10----12----12----------|
A| --14----------14----------9----------9----------12-------------------|
E| ---------------------------------------------------------------------|


e| ---------------------------------------------------------------------|
B| ---------------------------------------------------------------------|
G| --------11----------16----------16-----------------------------------|
D| -----12----12----14----14----14----14--------------------------------|
A| --12----------14----------14-----------------------------------------|
E| ---------------------------------------------------------------------|

Progression:
Verse | Bridge | Chorus | Verse | Bridge + | Chorus | End Bridge | Chorus


Suggest correction
Give kudos to tab author, rate the tab!
1 2 3 4 5
comments
print report bad tab
2 comments total.
+1 reply
zakkysmall 10 Aug 05, 2012 02:31 PM

when your doing your 9
10,7
10
instead try n the 4,3,2 strings try a 4,6,7 i think it sounds better

guest
You may want to rate the tab now too:
select rating
Wanna post a correction for this tab? Suggest correction