Oops, an error
Loading. Please wait.

Turning Tables Tab

version 1
version 1

Intro

Whole song

Interactive

15,015 views 9 this week
2 commentsread comments
1 2 3 4 5
accurate
x 3
add to favorites
launch autoscroll
font size
0
reset
how to read this tab
guitar tuner
Autoscroll
slow
fast
+/-
esc
set tempo
stop
Help us to improve Ultimate-Guitar.com Take our survey!
×
Author
Difficulty
intermediate
Tabbed By Brooke
Email me on brooke_pullen2010@hotmail.com if you can help with the rest of the song, thanks

Standard Tuning

Intro

--------5--5-------|
---4--4---4--4-----|
-5---5-------------|
-------------------|
-------------------|
-------------------|  x4

Verse
--------3---3-----------3---3-----------4---4-------4-3-----|
---4--4---4--4----4---4---4---4----4--4---5----4--------4---|
-5---5----------5---5------------5---5-------5---5----------|
------------------------------------------------------------|
------------------------------------------------------------|
------------------------------------------------------------|
Suggest correction
Give kudos to tab author, rate the tab!
1 2 3 4 5
comments
print report bad tab
2 comments total.
0 reply
spmcflylover 36 wrote on March 30 2012, 10:26 pm

fdhdfgdfgdfgdfgdfgdfgdfgdfg

0 reply
123kcjoseph 171 wrote on April 14 2016, 08:32 am

intro should be:
--------6--6-------|
---4--4---4--4-----|
-5---5-------------|
-------------------|
-------------------|
-------------------| x4

guest
You may want to rate the tab now too:
select rating
Wanna post a correction for this tab? Suggest correction