Oops, an error
Loading. Please wait.

Turning Tables Tab

version 2
version 2

Intro

Whole song

Interactive

6,712 views 21 this week
no commentswrite comment
1 2 3 4 5
excellent!
x 8
add to favorites
launch autoscroll
font size
0
reset
how to read this tab
guitar tuner
Autoscroll
slow
fast
+/-
esc
set tempo
stop
Help us to improve Ultimate-Guitar.com Take our survey!
×
Author
Intro

--------6--6-------|
---4--4---4--4-----|
-5---5-------------|
-------------------|
-------------------|
-------------------|  x4

Verse
--------6---6-----------3---3-----------3---3------4---4----4-3-----|
---4--4---4--4----4---4---4---4----4--4---5----4----4--4--4--------4|
-5---5----------5---5------------5---5-------5---5-------5----------|
--------------------------------------------------------------------|
--------------------------------------------------------------------|
--------------------------------------------------------------------|
Suggest correction
comments
print report bad tab
guest
You may want to rate the tab now too:
select rating
Wanna post a correction for this tab? Suggest correction