Oops, an error
Loading. Please wait.

Alive Tab

version 2
version 2

Acoustic

Whole song

Interactive

675 views 3 this week
no commentswrite comment
1 2 3 4 5
please rate
add to favorites
launch autoscroll
font size
0
reset
how to read this tab
guitar tuner
Tab Pro tools
  • play this tab
  • loop segment
  • change instrument
  • show fretboard
  • metronome
×
Best way to learn
"Alive"
Autoscroll
slow
fast
+/-
esc
set tempo
stop
Contributor
Difficulty
Capo
intermediate
1st fret
Guitar 1: Strum Chords (Capo 1st)
Guitar 2: Play Tab

C
E|-----------------|-----------------|
B|-----------------|-----------------|
G|---10--10--10--10|--10--10--10--10-|
D|-11--11--11--11--|11--11--11--11---|
A|-----------------|-----------------|
D|-----------------|-----------------|

  Am         G            F            C
  What if I told you that I think you’re perfect? 
E|-----------------|-----------------|
B|-----------------|-----------------|
G|---10--10--10--10|--10--10--10--10-|
D|-11--11--11--11--|11--11--11--11---|
A|-----------------|-----------------|
D|-----------------|-----------------|

Am          G         F             C
Beautiful sky in your eyes, it’s so worth it. 
E|-----------------|-----------------|
B|-----------------|-----------------|
G|---10--10--10--10|--10--10--10--10-|
D|-11--11--11--11--|11--11--11--11---|
A|-----------------|-----------------|
D|-----------------|-----------------|

Am G       F       C            Am G F C        
I know you make me feel alive. 
E|-----------------|-----------------|------------------|
B|-----------------|-----------------|-------9--11-9--9-|
G|---10--10--10—10-|--10--10--10--10-|--10----10----10--|
D|-11--11--11--11--|11--11--11--11---|11--11------------|
A|-----------------|-----------------|------------------|
D|-----------------|-----------------|------------------|

Am        G             F         C
What if I told you that I'm in forever? 
E|-----------------|-----------------|
B|-----------------|-----------------|
G|---10--10--10--10|--10--10--10--10-|
D|-11--11--11--11--|11--11--11--11---|
A|-----------------|-----------------|
D|-----------------|-----------------|

Am         G           F           C
Nothing to hide, yeah, I'll go wherever
E|-----------------|-----------------|
B|-----------------|-----------------|
G|---10--10--10--10|--10--10--10--10-|
D|-11--11--11--11--|11--11--11--11---|
A|-----------------|-----------------|
D|-----------------|-----------------|

Am  G       F       C                 Am G F 
You go, you make me feel alive.       
E|-----------------|-----------------|---9-8------------|
B|-----------------|-----------------|-------9-11-9--9--|
G|---10--10--10—10-|--10--10--10--10-|-------------10---|
D|-11--11--11--11--|11--11--11--11---|11----------------|
A|-----------------|-----------------|------------------|
D|-----------------|-----------------|------------------|

Am                  Em        F        G
And I'll be hanging on every word you say to me. 
E|8-9-8-9-8------------|8-9-8-9-8------------|
B|---------9-9/11-9--9-|---------9-9/11-9--9-|
G|-----------------10--|-----------------10--|
D|---------------------|---------------------|
A|---------------------|---------------------|
D|---------------------|---------------------|

Am           Em            F                   
Hanging on a feeling that I get, cause you make me 
E|8-9-8-9-8------------|8-9-8-9-8------------|
B|---------9-9/11-9--9-|---------9-9/11-9--9-|
G|-----------------10--|-----------------10--|
D|---------------------|---------------------|
A|---------------------|---------------------|
D|---------------------|---------------------|

C   Em   F
               Laugh a little louder 
E|---9--9--9--9-|--9--9--9--9-|
B|--------------|-------------|
G|--------------|-------------|
D|-11-11-11-11--|11-11-11-11--|
A|--------------|-------------|
D|--------------|-------------|

C   Em   F                                  G F Em    G F Em
               Love a little harder. 
E|---9--9--9--9-|--9--9--9--9-|---------------|----------------|
B|--------------|-------------|-9--9-7--7-6--6|-9--9-7--7-6--2-|
G|--------------|-------------|---------------|----------------|
D|-11-11-11-11--|11-11-11-11--|---------------|----------------|
A|--------------|-------------|---------------|----------------|
D|--------------|-------------|---------------|----------------|

    C      G                   F         Em
And I feel alive when I'm with you.  Every time it’s something
   E|--9--9--9--9-|--8--8--8--8-|-6-6-6-6-|-4-4-4-4-|
   B|-------------|-------------|---------|---------|
   G|-------------|-------------|---------|---------|
   D|11-11-11-11--|10-10-10-10--|8-8-8-8--|6-6-6-6--|
   A|-------------|-------------|---------|---------|
   D|-------------|-------------|---------|---------|

 Am                   G                     F
 New. Never knew what love could feel like 
        E|-6-6-6-6-|-4-4-4-4-|
        B|---------|---------|
        G|---------|---------|
        D|8-8-8-8--|6-6-6-6--|
        A|---------|---------|
        D|---------|---------|

               G
Until I walked away the first time. 
E|--2-2-2-2|-4-4-4-3-3-3-1-|
B|---------|---------------|
G|---------|---------------|
D|-4-4-4-4-|---------------|
A|---------|---------------|
D|---------|---------------|

    C      G                   F           Em
And I feel alive when I'm with you  Deep inside it’s something
   E|--9--9--9--9-|--8--8--8--8-|-6-6-6-6-|-4-4-4-4-|
   B|-------------|-------------|---------|---------|
   G|-------------|-------------|---------|---------|
   D|11-11-11-11--|10-10-10-10--|8-8-8-8--|6-6-6-6--|
   A|-------------|-------------|---------|---------|
   D|-------------|-------------|---------|---------|

 Am                    G              F
 True. You’re the only reason I fight 
        E|-6-6-6-6-|-4-4-4-4-|
        B|---------|---------|
        G|---------|---------|
        D|8-8-8-8--|6-6-6-6--|
        A|---------|---------|
        D|---------|---------|

                     G               Am G F C
     You’re the best thing in my life. 
        E|--2-2-2-2|-4-4-4-4-------|9~~----------|
        B|---------|---------------|-------------|
        G|---------|---------------|-------------|
        D|-4-4-4-4-|6-6-6-6--------|-------------|
        A|---------|---------------|-------------|
        D|---------|---------------|-------------|

  Am         G            F          C
  What if I told you that I’d never hurt you? 
E|-----------------|-----------------|
B|-----------------|-----------------|
G|---10--10--10--10|--10--10--10--10-|
D|-11--11--11--11--|11--11--11--11---|
A|-----------------|-----------------|
D|-----------------|-----------------|

Am        G         F           C
Always be there for you to hold on to. 
E|-----------------|-----------------|
B|-----------------|-----------------|
G|---10--10--10--10|--10--10--10--10-|
D|-11--11--11--11--|11--11--11--11---|
A|-----------------|-----------------|
D|-----------------|-----------------|

Am G       F       C                Am G F C    
I know you make me feel alive. 
E|-----------------|-----------------|--------9-8------|
B|-----------------|-----------------|----9-------9-11-|
G|---10--10--10—10-|--10--10--10--10-|--10-10----------|
D|-11--11--11--11--|11--11--11--11---|11---------------|
A|-----------------|-----------------|-----------------|
D|-----------------|-----------------|-----------------|

Am               Em         F        G
And every single second’s a lifetime memory. 
E|8-9-8-9-8------------|8-9-8-9-8------------|
B|---------9-9/11-9--9-|---------9-9/11-9--9-|
G|-----------------10--|-----------------10--|
D|---------------------|---------------------|
A|---------------------|---------------------|
D|---------------------|---------------------|

Am              Em         F                   
I’ll be holding on to each second, cause you make me 
E|8-9-8-9-8------------|8-9-8-9-8------------|
B|---------9-9/11-9--9-|---------9-9/11-9--9-|
G|-----------------10--|-----------------10--|
D|---------------------|---------------------|
A|---------------------|---------------------|
D|---------------------|---------------------|

C   Em   F
               Laugh a little louder 
E|---9--9--9--9-|--9--9--9--9-|
B|--------------|-------------|
G|--------------|-------------|
D|-11-11-11-11--|11-11-11-11--|
A|--------------|-------------|
D|--------------|-------------|

C   Em   F                                  G F Em    G F Em
               Love a little harder. 
E|---9--9--9--9-|--9--9--9--9-|---------------|-13--9--13--11-|
B|--------------|-------------|-9--9-7--7-6---|---------------|
G|--------------|-------------|---------------|---------------|
D|-11-11-11-11--|11-11-11-11--|---------------|---------------|
A|--------------|-------------|---------------|---------------|
D|--------------|-------------|---------------|---------------|

    C      G                   F         Em
And I feel alive when I'm with you.  Every time it’s something
   E|--9--9--9--9-|--8--8--8--8-|-6-6-6-6-|-4-4-4-4-|
   B|-------------|-------------|---------|---------|
   G|-------------|-------------|---------|---------|
   D|11-11-11-11--|10-10-10-10--|8-8-8-8--|6-6-6-6--|
   A|-------------|-------------|---------|---------|
   D|-------------|-------------|---------|---------|

 Am                   G                     F
 New. Never knew what love could feel like 
        E|-6-6-6-6-|-4-4-4-4-|
        B|---------|---------|
        G|---------|---------|
        D|8-8-8-8--|6-6-6-6--|
        A|---------|---------|
        D|---------|---------|

               G
Until I walked away the first time. 
E|--2-2-2-2|-4-4-4-3-3-3-1-|
B|---------|---------------|
G|---------|---------------|
D|-4-4-4-4-|---------------|
A|---------|---------------|
D|---------|---------------|

    C      G                   F           Em
And I feel alive when I'm with you  Deep inside it’s something
   E|--9--9--9--9-|--8--8--8--8-|-6-6-6-6-|-4-4-4-4-|
   B|-------------|-------------|---------|---------|
   G|-------------|-------------|---------|---------|
   D|11-11-11-11--|10-10-10-10--|8-8-8-8--|6-6-6-6--|
   A|-------------|-------------|---------|---------|
   D|-------------|-------------|---------|---------|

 Am                    G              F
 True. You’re the only reason I fight 
        E|-6-6-6-6-|-4-4-4-4-|
        B|---------|---------|
        G|---------|---------|
        D|8-8-8-8--|6-6-6-6--|
        A|---------|---------|
        D|---------|---------|

                     G               Am G F C
     You’re the best thing in my life. 
        E|--2-2-2-2|-4-4-4-4-------|
        B|---------|---------------|
        G|---------|---------------| 
        D|-4-4-4-4-|6-6-6-6--------|
        A|---------|---------------|
        D|---------|---------------|

  F                 C                 Am                G
E|------13-13-13-11|-------11-11-11-9|-------11-11-11-9|-11-13-13-13-13-16-|
B|-----------------|-----------------|-----------------|-------------------|
G|-----------------|-----------------|-----------------|-------------------|
D|-----------------|-----------------|-----------------|-------------------|
A|-----------------|-----------------|-----------------|-------------------|
D|-----------------|-----------------|-----------------|-------------------|

  F                 C                 Am                G
E|-14--13--11------|-------11-11-11-9|-------11-11-11-9|-9-11-13-13-13-13-16|
B|-----------------|-----------------|-----------------|--------------------|
G|-----------------|-----------------|-----------------|--------------------|
D|-----------------|-----------------|-----------------|--------------------|
A|-----------------|-----------------|-----------------|--------------------|
D|-----------------|-----------------|-----------------|--------------------|

    C      Em                   F    
And I feel alive when I'm with you
E|-9~~-------------|-----------------|-16-16-14-14-13--|-------------------|
B|-----------------|-----------------|-----------------|-------------------|
G|-----------------|-----------------|-----------------|-------------------|
D|-----------------|-----------------|-----------------|-------------------|
A|-----------------|-----------------|-----------------|-------------------|
D|-----------------|-----------------|-----------------|-------------------|
  G         F        Em     C
When I’m with you
E|-16-16-16-14-14-14-13-13|-9~~-------------|
B|------------------------|-----------------|
G|------------------------|-----------------|
D|------------------------|-----------------|
A|------------------------|-----------------|
D|------------------------|-----------------|

    C      G                   F         Em
And I feel alive when I'm with you.  Every time it’s something
   E|--9--9--9--9-|--8--8--8--8-|-6-6-6-6-|-4-4-4-4-|
   B|-------------|-------------|---------|---------|
   G|-------------|-------------|---------|---------|
   D|11-11-11-11--|10-10-10-10--|8-8-8-8--|6-6-6-6--|
   A|-------------|-------------|---------|---------|
   D|-------------|-------------|---------|---------|

 Am                   G                     F
 New. Never knew what love could feel like 
        E|-6-6-6-6-|-4-4-4-4-|
        B|---------|---------|
        G|---------|---------|
        D|8-8-8-8--|6-6-6-6--|
        A|---------|---------|
        D|---------|---------|

               G
Until I walked away the first time. 
E|--2-2-2-2|-4-4-4-3-3-3-1-|
B|---------|---------------|
G|---------|---------------|
D|-4-4-4-4-|---------------|
A|---------|---------------|
D|---------|---------------|

    C      G                   F           Em
And I feel alive when I'm with you  Deep inside it’s something
   E|--9--9--9--9-|--8--8--8--8-|-6-6-6-6-|-4-4-4-4-|
   B|-------------|-------------|---------|---------|
   G|-------------|-------------|---------|---------|
   D|11-11-11-11--|10-10-10-10--|8-8-8-8--|6-6-6-6--|
   A|-------------|-------------|---------|---------|
   D|-------------|-------------|---------|---------|

 Am                    G              F
 True. You’re the only reason I fight 
        E|-6-6-6-6-|-4-4-4-4-|
        B|---------|---------|
        G|---------|---------|
        D|8-8-8-8--|6-6-6-6--|
        A|---------|---------|
        D|---------|---------|

                     G               C
     You’re the best thing in my life. 
        E|--2-2-2-2|-4-4-4-4-------|-9------------|
        B|---------|---------------|-9------------|
        G|---------|---------------|-9------------|
        D|-4-4-4-4-|6-6-6-6--------|--------------|
        A|---------|---------------|--------------|
        D|---------|---------------|--------------|
comments
We did not receive enough feedback on this tab! Please rate:
print report bad tab
1 2 3 4 5
I want to post or [tab]
guest
You may want to rate the tab now too:
select rating
Please do not post tabs as comments. Select "correction" instead!