Oops, an error
Loading. Please wait.

Cage The Beast Tab

2,500 views 9 this week
no commentswrite comment
1 2 3 4 5
excellent!
x 6
add to favorites
launch autoscroll
font size
0
reset
how to read this tab
guitar tuner
Autoscroll
slow
fast
+/-
esc
set tempo
stop
Help us to improve Ultimate-Guitar.com Take our survey!
×
Author
Difficulty
Tuning
intermediate
C# G# C# F# A# D#
Artist: Adelita's Way
Song: Cage the Beast
Tuning: Drop C#
Tabbed By: shredforever

Intro 
Guitar 1:
|------------------------------------------------------------------|
|------------------------------------------------------------------| x4
|------------------------------------------------------------------|
|--0-0---0--12h14--10h12--12h15---0-0---0--12h10-0-12h10-0-12h10---|
|--0-0---0--12h14--10h12--12h15---0-0---0--12h10-0-12h10-0-12h10---|
|--0-0---0--12h14--10h12--12h15---0-0---0--12h10-0-12h10-0-12h10---|

Guitar 2: comes in after guitar 1 plays its part twice
the numbers in parentheses are how many times to play the note
|-----------------------------------------------------------|
|---(x14)------------(x14)-----------(x14)-----------(x16)--| 
|--14---------10----12---------9----10---------9----12------|
|-----------------------------------------------------------|
|--12----------8----10---------7-----8---------7----10------|
|-----------------------------------------------------------|

Verse
Guitar 1:
|------------------------------------------------------|
|------------------------------------------------------|
|------------------------------------------------------|
|-0--0-0----0--0-0----8--8-8----3-3-3s10---10---10-10--|
|-0--0-0----0--0-0----8--8-8----3-3-3s10---10---10-10--|
|-0--0-0----0--0-0----8--8-8----3-3-3s10---10---10-10--| 

Prechorus
Guitar 1:
|------------------------------------------------------------------|
|------------------------------------------------------------------|
|------------------------------------------------------------------|
|-5----5------7----7------8----8------10----10-------10------------| 
|-5----5------7----7------8----8------10----10-------10------------| 
|-5----5------7----7------8----8------10----10-------10------------| 

Guitar 2:
|-------------------------------------------------------------------|
|-------------------------------------------------------------------|
|-10----10------14----14------15----15------17----17-------17-------|
|-------------------------------------------------------------------|
|--8-----8------12----12------13----13------15----15-------15-------|
|-------------------------------------------------------------------|

Chorus
Guitar 1:
|------------------------------------------------------------------------------|
|------------------------------------------------------------------------------|
|------------------------------------------------------------------------------|
|-0---0-0---0-0-x-x--8---8-8---8-8-x-x--5---5-5---5-5-x-x--10---10-10---10-10--| 
|-0---0-0---0-0-x-x--8---8-8---8-8-x-x--5---5-5---5-5-x-x--10---10-10---10-10--| 
|-0---0-0---0-0-x-x--8---8-8---8-8-x-x--5---5-5---5-5-x-x--10---10-10---10-10--| 

Guitar 2:
|---------------------|      |------------------------|
|---------------------| x3   |------------------------|
|--7--10--7--9--7-----|      |--7--12--7--10--7--9----|
|---------------------|      |------------------------|
|--5---8--5--7--5-----|      |--5--10--5---8--5--7----|
|---------------------|      |------------------------|

Verse

Prechorus

Chorus

Bridge
Guitar 1:
|--------------------------------------------| 
|--------------------------------------------| x2
|--------------------------------------------|
|-12--0--7--8--7--0-0---12--0--7--8--7--0----|
|-12--0--7--8--7--0-0---12--0--7--8--7--0----|
|-12--0--7--8--7--0-0---12--0--7--8--7--0----|

|---------------------------------|
|---------------------------------|
|---------------------------------|
|-8--8--8-8----10--10--10-10------|
|-8--8--8-8----10--10--10-10------|
|-8--8--8-8----10--10--10-10------|

|--------------------------------------------|
|--------------------------------------------|
|--------------------------------------------| 
|-12--0--7--8--7--0-0---12--0--7--8--7--0----| x2
|-12--0--7--8--7--0-0---12--0--7--8--7--0----|
|-12--0--7--8--7--0-0---12--0--7--8--7--0----|

|-------------------------------------------------|
|-------------------------------------------------|
|-------------------------------------------------|
|-8--8--8-8----10-10--10--10----7--7--7-7----7----|
|-8--8--8-8----10-10--10--10----7--7--7-7----7----|
|-8--8--8-8----10-10--10--10----7--7--7-7----7----|

Guitar 2:
|------------------------------------------------------|
|------------------------------------------------------| x2
|--10s9----14---14---14w-14---15---12---12---12-12-----|
|------------------------------------------------------|
|---8s7----12---12---12w-12---13---10---10---10-10-----|
|---^--------------------------------------------------|
    ^ play this note really fast many times and quickly slide to play a few of 9-7 notes 

|----------------------|
|----------------------|
|-9--9--9--9----9------|
|----------------------|
|-9--9--9--9----9------|
|----------------------|

Chorus

Outro
Guitar 1:
|--------------------------------------------|
|--------------------------------------------|
|--------------------------------------------| 
|-12--0--7--8--7--0-0---12--0--7--8--7--0----|
|-12--0--7--8--7--0-0---12--0--7--8--7--0----|
|-12--0--7--8--7--0-0---12--0--7--8--7--0----|

|-------------------------------|
|-------------------------------|
|-------------------------------| 
|-12--0--7--8--7--0----0-0-0----| 
|-12--0--7--8--7--0----0-0-0----|
|-12--0--7--8--7--0----0-0-0----|

Guitar 2: Listen for the beat for how many times to play each of these notes and how fast
|--------------------------------|
|--------------------------------| x3
|-17---19---17---19---17---19----|
|--------------------------------|
|-15---17---15---17---15---17----|
|--------------------------------|
Suggest correction
What's this?
You can suggest a correction to this tab. Community and Mods will review your correction and vote to approve or reject it.
comments
print report bad tab
guest
You may want to rate the tab now too:
select rating
Please do not post tabs as comments. Select "correction" instead!