Oops, an error
Loading. Please wait.

Criticize Tab

2,692 views 15 this week
3 commentsread comments
1 2 3 4 5
accurate
x 3
add to favorites
launch autoscroll
font size
0
reset
how to read this tab
guitar tuner
Autoscroll
slow
fast
+/-
esc
set tempo
stop
Help us to improve Ultimate-Guitar.com Take our survey!
×
Author
Difficulty
Tuning
intermediate
C G C F A D
Tuning is Drop C (dAFCGC)

DRUMS AND SPECIAL EFFECTS
D|------------------------------------------------|
A|------------------------------------------------|
F|------------------------------------------------|
C|------------------------------------------------|
G|------------------------------------------------|
C|------------------------------------------------|

D|---------------------------------------------------------------|
A|---------------------------------------------------------------|
F|-14-13--7-7/101010\7/101010\-----------------------------------|
C|---------------------------------------------------------------|
G|-12-11--5-5/8-8-8-\5/8-8-8\------------------------------------|
C|---------------------------------------------------------------|

use grace note with slide, execute quick the slides
|---------------------------------------------------------------|
|---------------------------------------------------------------|
|-14/13-13---7--7/101010\7/101010\------------------------------|
|---------------------------------------------------------------|
|-12/11-11---5--5/8-8-8-\5/8-8-8\-------------------------------|
|---------------------------------------------------------------|

bass and guitar pedal effect 

|-------------------------------------------------------------|
|-------------------------------------------------------------|
|------------3---5---3---5---------3-----5--------------------|
|-0--------------------------0--------------------------------|

prechorus
|-------------------------------------------------------------|
|-------------------------------------------------------------|
|---3---------------------------5-----------------------------|
|---3---------------3-----------5-----------------------------|
|---1---------------3-----------3-----------------------------|
|-------------------3-----------------------------------------|

chours

|---------------------------|
|---------------------------|
|--------------5555-3333----|
|-000000-33333-5555-3333----| Repeat
|-000000-33333-3333-1111----|
|-000000-33333--------------|

|---------------------|
|---------------------|
|---------------5-----|
|-000000-33333--5-----| last part
|-000000-33333--3-----|
|-000000-33333--------|


intro


|---------------------------------------------------------------|
|---------------------------------------------------------------|
|-191919-191919-191919-191919---171717/1414---------------------|
|---------------------------------------------------------------|
|-171919-171717-171717-171717---151515/1212---------------------|
|---------------------------------------------------------------|

PRE-CHOURS

choUrs

Breakdown
|----------------------------------------------|
|----------------------------------------------|
|-33333333333-5---77777777777--5--33333333333--|
|-33333333333-5---77777777777--5--33333333333--| 
|-11111111111-3---55555555555--3--11111111111--|
|----------------------------------------------|

|-----------------------------------------------------|
|-----------------------------------------------------|
|--5---77777777777--5--33333333333--5---77777777777---|
|--5---77777777777--5--33333333333--5---77777777777---| 
|--3---55555555555--3--11111111111--3---55555555555---|
|-----------------------------------------------------|




GUITAR 1             :>GUITAR 2 is ONE Octave UP (15º FRET)

|--------------------------------------------------|
|--------------------------------------------------|
|--------------------5/777-7-5-5/777-7-5-----------|
|---0-XXX-X-0XXX-0---------------------------------| 2X
|---0-XXX-X-0XXX-0---3/555-5-3-3/555-5-3-----------|
|---0-XXX-X-0XXX-0---------------------------------|

micro solo
|---------------------------------------------------------------|
|---------------------------------------------------------------|
|-12/14-14-14-17-14-12-14-17-14-12-14-12/14---14B-14B--12/14B16-|
|---------------------------------------------------------------|
|---------------------------------------------------------------|
|---------------------------------------------------------------|

play chours 3x

legend and Keys:

/ =slide
X =dead note
B =bend
Suggest correction
Give kudos to tab author, rate the tab!
1 2 3 4 5
comments
print report bad tab
3 comments total.
0 reply
Hydroflare77 10 wrote on February 21 2013, 03:15 pm

Bridge missing :\

0 reply
KrisBcream 175 wrote on April 13 2013, 04:59 pm

The chorus doesn't make any sense to me...I don't know if I'm looking at it wrong but it sounds way different then what you put.

0 reply
rondimw 4,018 wrote on May 1 2014, 10:48 am

sorry, but I Tried put it correct

guest
You may want to rate the tab now too:
select rating
Please do not post tabs as comments. Select "correction" instead!