Oops, an error
Loading. Please wait.

Last Stand Tab

version 1
version 1

Whole song

1,185 views 3 this week
6 commentsread comments
1 2 3 4 5
excellent!
x 7
add to favorites
launch autoscroll
font size
0
reset
how to read this tab
guitar tuner
Autoscroll
slow
fast
+/-
esc
set tempo
stop
Help us to improve Ultimate-Guitar.com Take our survey!
×
Author
Difficulty
Tuning
novice
D# G# C# F# A# D#
------------------------------
Artist: Adelitas Way
Song: Last Stand
Album: Adelitas Way
Tabbed by: callumfrew97
Email: callumfrew97@gmail.com
------------------------------
Not sure on the strumming pattern for the verses, sorry. If any of you figure it out,
it would be much appreciated if you could either email it to me or comment it in the
comment section below!:) 
Bm chord also might be a little off, please comment the correct Bm if you know it
for this song:)

Tuning: Half-Step Down

]Chords[

A|-0-|- Asus4|-0-|- Bm|-2-|- D|-2-|- Em|-0-|- Em7|-0-|- F#|-2-|- G|-3-|-
-|-2-|-     -|-3-|-  -|-3-|- -|-3-|-  -|-0-|-   -|-0-|-  -|-2-|- -|-0-|-
-|-2-|-     -|-2-|-  -|-4-|- -|-2-|-  -|-0-|-   -|-0-|-  -|-3-|- -|-0-|-
-|-2-|-     -|-2-|-  -|-4-|- -|-0-|-  -|-2-|-   -|-0-|-  -|-4-|- -|-0-|-
-|-0-|-     -|-0-|-  -|-2-|- -|---|-  -|-2-|-   -|-2-|-  -|-4-|- -|-2-|-
-|---|-     -|---|-  -|---|- -|---|-  -|-0-|-   -|-0-|-  -|-2-|- -|-3-|-

[Intro:]

PM:
d#|-------0-------|---------------|---------------|---------------|
A#|---------3-----|-------2-------|-------0-------|-------0h2-----|
F#|-----4-----4---|-----4---4-----|-----0---0-----|-----2-----2---|
C#|---4-----------|---4-------4---|---0-------0---|---2---------2-| 
G#|-2-----------2-|-0-----------0-|---------------|-0-------------|
D#|---------------|---------------|-3-----------3-|---------------|

[Verse 1:]

  I'm  all  alone, you're  far  away, never learned from my mistakes.
PM:
d#|-------0-------|---------------|---------------|---------------|
A#|---------3-----|-------2-------|-------0-------|-------0h2-----|
F#|-----4-----4---|-----4---4-----|-----0---0-----|-----2-----2---|
C#|---4-----------|---4-------4---|---0-------0---|---2---------2-| 
G#|-2-----------2-|-0-----------0-|---------------|-0-------------|
D#|---------------|---------------|-3-----------3-|---------------|

  I should have known just what to say   to     make you want to stay
PM:
d#|-------0-------|---------------|---------------|---------------|
A#|---------3-----|-------2-------|-------0-------|-------0h2-----|
F#|-----4-----4---|-----4---4-----|-----0---0-----|-----2-----2---|
C#|---4-----------|---4-------4---|---0-------0---|---2---------2-| 
G#|-2-----------2-|-0-----------0-|---------------|-0-------------|
D#|---------------|---------------|-3-----------3-|---------------|

         A              G
You were always the one giving

      Asus            Em7
I was always there to take it 

                    F#
Take your heart and break it, ohhh


[Chorus:] 

G        D                 A
And I'll never make it without you

  Asus             G
I need a second chance

        D                 A
Cause I want to make it about you

    Asus             D
I'm making my last stand

                    Asus                    
It took a moment to say

                      Em7
It wasn't you it was me

                     Bm
I couldn't let you in

                  A                    Em7  Em
Now I'm ashamed I pushed you away from me,  ohhh

Bm                  A                Em
Now I'm afraid it's too late to save again

[Pre-Verse 2:]
Eb|-----------------|
Bb|-------0---------|
Gb|-----0----0------|
Db|---0--------0----|
Ab|--------------0--|
Eb|-3---------------|

[Verse 2:]

 Miss you the most when    I   sleep, turning nightmares into dreams.
PM:
d#|-------0-------|---------------|---------------|---------------|
A#|---------3-----|-------2-------|-------0-------|-------0h2-----|
F#|-----4-----4---|-----4---4-----|-----0---0-----|-----2-----2---|
C#|---4-----------|---4-------4---|---0-------0---|---2---------2-| 
G#|-2-----------2-|-0-----------0-|---------------|-0-------------|
D#|---------------|---------------|-3-----------3-|---------------|
 
 Can't  lose  hope, it's killing me, I'm   the  one who made her leave.
PM:
d#|-------0-------|---------------|---------------|---------------|
A#|---------3-----|-------2-------|-------0-------|-------0h2-----|
F#|-----4-----4---|-----4---4-----|-----0---0-----|-----2-----2---|
C#|---4-----------|---4-------4---|---0-------0---|---2---------2-| 
G#|-2-----------2-|-0-----------0-|---------------|-0-------------|
D#|---------------|---------------|-3-----------3-|---------------|

       A               G
But if I just take a chance now

     Asus            Em7
Open up and finally reach out

                  F#
Can I save it all somehow, ohhh


[Chorus:]

G        D                 A
And I'll never make it without you

  Asus             G
I need a second chance

        D                 A
Cause I want to make it about you

    Asus             D
I'm making my last stand

                    Asus                    
It took a moment to say

                      Em7
It wasn't you it was me

                     Bm
I couldn't let you in

                  A                    Em7  Em
Now I'm ashamed I pushed you away from me,  ohhh

Bm                  A                Em
Now I'm afraid it's too late to save again, ohhh


[Solo:]


d#|-------------------------------------------------------------------------------------|
A#|--14-15-14-13------14-13-14-13------14b16--14-13-14-13-13~--------------13b14--14b15-|
F#|--------------13---------------13-----------------------------17-17b19---------------|
C#|-------------------------------------------------------------------------------------|
G#|-------------------------------------------------------------------------------------|
D#|-------------------------------------------------------------------------------------|


d#|---------------------------------------------------------------------------------------|
A#|--15b17----17-18-17-16------17-16-17-16------17b18--17-18-17-16------13-15-16-14-16-17-|
F#|-----------------------16---------------16----------------------16---------------------|
C#|---------------------------------------------------------------------------------------|
G#|---------------------------------------------------------------------------------------|
D#|---------------------------------------------------------------------------------------|


d#|--16--|
A#|------|
F#|------|
C#|------|
G#|------|
D#|------|


[Bridge:]

          A
I'm all alone

            G
You're far away

          Asus               F#
I finally found the words to say, ohhh


[Chorus:]


G        D                 A
And I'll never make it without you

  Asus             G
I need a second chance

        D                 A
Cause I want to make it about you

    Asus             D
I'm making my last stand

                    Asus                    
It took a moment to say

                      Em7
It wasn't you it was me

                     Bm
I couldn't let you in

                  A                    Em7  Em
Now I'm ashamed I pushed you away from me,  ohhh

Bm                  A                Em7    Em
Now I'm afraid it's too late to save again, ohhh

Bm                     A               Em
Won't be afraid, won't push you away...
Suggest correction
comments
print report bad tab
6 comments total. Showing first comments.
+1 reply
dkm817 7,179 wrote on June 10 2013, 07:27 pm

This looks very professional! From what I've seen, it seems pretty accurate. Nice job!

+1 reply
callumfrew97 230 wrote on June 11 2013, 03:03 am

Thank you! I was worried that the chords might be off but hopefully not, ey!:)

+1 reply
kstew97 10 wrote on July 20 2013, 04:03 am

good job(:

guest
You may want to rate the tab now too:
select rating
Please do not post tabs as comments. Select "correction" instead!