Oops, an error
Loading. Please wait.

Ready For War Tab

34 views 6 this week
no commentswrite comment
1 2 3 4 5
3 more votes to show rating
add to favorites
launch autoscroll
font size
0
reset
how to read this tab
guitar tuner
Autoscroll
slow
fast
+/-
esc
set tempo
stop
Help us to improve Ultimate-Guitar.com Take our survey!
×
Author
Difficulty
Tuning
novice
D A D G B E
[Intro]                                                      
E||---------------------------------|------------------------------|
B||---------------------------------|------------------------------|
G||---------------------------------|------------------------------|
D||---------------------------------|--9--9--x--x------------------|
A||--3/7---7--x--x------------------|--7--7--x--x--x-10-9--9-------|
D||-----------------x-10-9--9---x---|--------------x-10-9--9-------|

       
E|-----------------------------|----------------------------||
B|-----------------------------|----------------------------||
G|-----------------------------|----------------------------||
D|--9--x--x--------------------|--3--x-x-3--x-x-3--x-x-3----||
A|--7--x--x--x-10-9--9---------|--3--x-x-3--x-x-3--x-x-3----||
D|-----------x-10-9--9---------|--3--x-x-3--x-x-3--x-x-3----||


[Chours] 
                                                 
E|--------------------------|--------------------------|
B|--------------------------|--------------------------|
G|--5--5--5--5--5--5--5--5--|--------------------------|
D|--5--5--5--5--5--5--5--5--|--7--7--7--7--7--7--7--7--|
A|--3--3--3--3--3--3--3--3--|--7--7--7--7--7--7--7--7--|
D|--------------------------|--7--7--7--7--7--7--7--7--|
 
E|--------------------------|--------------------------|
B|--------------------------|--------------------------|
G|--9--9--9--9--9--9--9--9--|--7--7--7--7--7--7--7--7--|
D|--9--9--9--9--9--9--9--9--|--7--7--7--7--7--7--7--7--|
A|--7--7--7--7--7--7--7--7--|--5--5--5--5--5--5--5--5--|
D|--------------------------|--------------------------|



[Breakdown]                                                                   
                                                        
E|-----------------------------------------|
B|-----------------------------------------|
G|-----------------------------------------|
D|-----------------------------------------|
A|-------7p5-7p5p0---------7p5-7p5p0-------|
D|------------------7p5p0------------7p5p0-|


    PM  PM  PM   PM  PM PM
E|--------------------------|
B|--------------------------|
G|--------------------------|
D|--9---7---9---10---9--7---|
A|--7---5---7----8---7--5---|
D|--------------------------|

E|-----------------------------------------|
B|-----------------------------------------|
G|-----------------------------------------|
D|-----------------------------------------|
A|-------7p5-7p5p0---------7p5-7p5p0-------|
D|------------------7p5p0------------7p5p0-|

    PM  PM  PM   PM  PM PM
E|--------------------------|
B|--------------------------|
G|--------------------------|
D|--9---7---9---10---9--7---|
A|--7---5---7----8---7--5---|
D|--------------------------|

E|-------------------------|----------------------------||
B|-------------------------|----------------------------||
G|-------------------------|----------------------------||
D|--9---7---9---10---9--7--|--3--x-x-3--x-x-3--x-x-3----||
A|--7---5---7----8---7--5--|--3--x-x-3--x-x-3--x-x-3----||
D|-------------------------|--3--x-x-3--x-x-3--x-x-3----||



[Chours] 
                                                 
E|--------------------------|--------------------------|
B|--------------------------|--------------------------|
G|--5--5--5--5--5--5--5--5--|--------------------------|
D|--5--5--5--5--5--5--5--5--|--7--7--7--7--7--7--7--7--|
A|--3--3--3--3--3--3--3--3--|--7--7--7--7--7--7--7--7--|
D|--------------------------|--7--7--7--7--7--7--7--7--|
 
E|--------------------------|--------------------------|
B|--------------------------|--------------------------|
G|--9--9--9--9--9--9--9--9--|--7--7--7--7--7--7--7--7--|
D|--9--9--9--9--9--9--9--9--|--7--7--7--7--7--7--7--7--|
A|--7--7--7--7--7--7--7--7--|--5--5--5--5--5--5--5--5--|
D|--------------------------|--------------------------|


************************************
| PM  Palm Mute
| /   Slide
| p   Pull-off
| x   Dead Note
************************************
Suggest correction
Give kudos to tab author, rate the tab!
1 2 3 4 5
comments
print report bad tab
guest
You may want to rate the tab now too:
select rating
Wanna post a correction for this tab? Suggest correction