Oops, an error
Loading. Please wait.

Sick Tab

version 4
version 4

Whole song

205 views 1 this week
no commentswrite comment
1 2 3 4 5
please rate
add to favorites
launch autoscroll
font size
0
reset
how to read this tab
guitar tuner
Tab Pro tools
  • play this tab
  • loop segment
  • change instrument
  • show fretboard
  • metronome
Autoscroll
slow
fast
+/-
esc
set tempo
stop
Contributor
Difficulty
Tuning
novice
C G C F A D
tuning: Drop c

guitar1
D|--------------------------------------|
A|-----10-----10-----10-----8-----8-----|
F|-7-7----7-7----7-7----7-7---7-7-------|
C|--------------------------------------|
G|--------------------------------------|
C|--------------------------------------|

guitar 2
|---------------------------------------------|
|-3-3----------3-3----------------------------|
|-2-2----------2-2----------------------------|
|-0-0----------0-0----------------------------|
|-0-0----------0-0----------------------------|
|-0-0----------0-0----------------------------|


GUITAR 1
IN 3X TIME PLAY THIS-------------------\/

|------------------------------------|-----|
|------------------------------------|-----|
|-5/7-7-7/10-10-10/12-12-12\10-10-10-|-5---|
|------------------------------------|-X---|
|-3/5-5-5/8--8--8/-10-10-10\8--10-10-|-3---|
|------------------------------------|-----| x3

GUITAR 2 (USE PALM MUTE IN C -0 STRINGS)
|---------------------------------------------------------------|
|---------------------------------------------------------------|
|---------------------------------------------------------------|
|-00-----00-------00-------x5h6p5-3-----------------------------|
|-00-----00-------00-------x5h6p5-3-----------------------------|
|-00-----00-------00-------x5h6p5-3-----------------------------|

Verse 1

|---------------------------------------------------------------|
|---------------------------------------------------------------|
|---------------------------------------------------------------|
|-0-0---xx-----0-0---xx-----0-0---xx6p5p0-6p5p3------0-0------xx|
|-0-0---xx-----0-0---xx-----0-0---xx6p5p0-6p5p3------0-0------xx|
|-0-0---xx-----0-0---xx-----0-0---xx6p5p0 6p5p3------0-0------xx|

|---------------------------------------------------------------|
|---------------------------------------------------------------|
|---------------------------------------------------------------|
|-0-0---xx-----0-0---xx-----0-0---xx6p5p0-6p5p3-----------------|
|-0-0---xx-----0-0---xx-----0-0---xx6p5p0-6p5p3-----------------|
|-0-0---xx-----0-0---xx-----0-0---xx6p5p0 6p5p3-----------------|

Chorus

|---------------------------------------------------------------|
|---------------------------------------------------------------|
|---------------------------------------------------------------|
|-00000000-33333333-88888888-55555555---------------------------|
|-00000000-33333333-88888888-55555555---------------------------|
|-00000000-33333333-88888888-55555555---------------------------| x2

|-----------------------------------------|
|-----------------------------------------|
|-5/7-7-7/10-10-10/12-12-12\10-10-10------|
|-----------------------------------------|3x
|-3/5-5-5/8--8--8/-10-10-10\8--10-10------|
|-----------------------------------------| 
|---------------------------------------------------------------|
|---------------------------------------------------------------|
|---------------------------------------------------------------|
|-5~-------------x5h6p5-3---------------------------------------|
|-5~-------------x5h6p5-3---------------------------------------|
|-5~-------------x5h6p5-3---------------------------------------|

Verse 2

|---------------------------------------------------------------|
|---------------------------------------------------------------|
|---------------------------------------------------------------|
|-0-0---xx-----0-0---xx-----0-0---xx6p5p0-6p5p3------0-0------xx|
|-0-0---xx-----0-0---xx-----0-0---xx6p5p0-6p5p3------0-0------xx|
|-0-0---xx-----0-0---xx-----0-0---xx6p5p0 6p5p3------0-0------xx|

|---------------------------------------------------------------|
|---------------------------------------------------------------|
|---------------------------------------------------------------|
|-0-0---xx-----0-0---xx-----0-0---xx6p5p0-6p5p3-----------------|
|-0-0---xx-----0-0---xx-----0-0---xx6p5p0-6p5p3-----------------|
|-0-0---xx-----0-0---xx-----0-0---xx6p5p0 6p5p3-----------------|

|---------------------------------------------------------------|
|---------------------------------------------------------------|
|---------------------------------------------------------------|
|-5-5-5b-5b-5b-5b-5b-5b-----------------------------------------|
|-5-5-5b-5b-5b-5b-5b-5b-----------------------------------------|
|-5-5-5b-5b-5b-5b-5b-5b-----------------------------------------|
pm    .  .  .  .  .  .  Ascending bend WITH LIGHT PALM MUTE

Chorus

|---------------------------------------------------------------|
|---------------------------------------------------------------|
|---------------------------------------------------------------|
|-00000000-33333333-88888888-55555555---------------------------|
|-00000000-33333333-88888888-55555555---------------------------|
|-00000000-33333333-88888888-55555555---------------------------| x2

Bridge

|-------------------------------------------|
|-------------------------------------------|
|--5555/7777\5555/7777----------------------|
|-------------------------------------------|
|--3333/5555\3333/5555----------------------|
|-------------------------------------------| x8

|---------------------------------------------------------------|
|---------------------------------------------------------------|
|---------------------------------------------------------------|
|-----0-0-------------------------0-0-------------5~------------|
|-----0-0-------------------------0-0-------------5~------------|
|-----0-0-------------------------0-0-------------5~------------|

Chorus

|---------------------------------------------------------------|
|---------------------------------------------------------------|
|---------------------------------------------------------------|
|-00000000-33333333-88888888-55555555---------------------------|
|-00000000-33333333-88888888-55555555---------------------------|
|-00000000-33333333-88888888-55555555---------------------------|

|---------------------------------------------------------------|
|---------------------------------------------------------------|
|---------------------------------------------------------------|
|-00000000-33333333-88888888---5p3h5p3h5--5p3h5--5p3h5-5--------|
|-00000000-33333333-88888888---5p3h5p3h5--5p3h5--5p3h5-5--------|
|-00000000-33333333-88888888---5p3h5p3h5--5p3h5--5p3h5-5--------|

|---------------------------------------------------------------|
|---------------------------------------------------------------|
|---------------------------------------------------------------|
|-00000000-33333333-88888888-55555555---------------------------|
|-00000000-33333333-88888888-55555555---------------------------|
|-00000000-33333333-88888888-55555555---------------------------|

|---------------------------------------------------------------|
|---------------------------------------------------------------|
|---------------------------------------------------------------|
|-00000000-33333333-88888888---5p3h5p3h5-5--5p3h5p3h5-5---------|
|-00000000-33333333-88888888---5p3h5p3h5-5--5p3h5p3h5-5---------|
|-00000000-33333333-88888888---5p3h5p3h5-5--5p3h5p3h5-5---------|

Outro
GUITAR 1
|-----------------------------------------|
|-----------------------------------------|
|-5/7-7-7/10-10-10/12-12-12\10-10-10------|
|-----------------------------------------|3x
|-3/5-5-5/8--8--8/-10-10-10\8--10-10------|
|-----------------------------------------| 

GUITAR 2
|---------------------------------------------------------------|
|---------------------------------------------------------------|
|---------------------------------------------------------------|
|-5~-----------x5h6p5-3--00------------------------------0-0----|
|-5~-----------x5h6p5-3--00------------------------------0-0----|
|-5~-----------x5h6p5-3--00------------------------------0-0----|

legend

~=vibrato
p=pull off
/=slide
pm .=palm mute
X=dead note
comments
We did not receive enough feedback on this tab! Please rate:
print report bad tab
1 2 3 4 5
I want to post or [tab]
guest
You may want to rate the tab now too:
select rating
Please do not post tabs as comments. Select "correction" instead!