Oops, an error
Loading. Please wait.

Giving In tab

version 7
version 7
by Adema
380 views 1 this week
no commentswrite comment
1 2 3 4 5
3 more votes to show rating
add to favorites
×
Save as Personal and add changes to this tab that will be seen only by you. Learn more ›
×
You can save this tab as Personal to edit and correct it or add notes. All changes will be seen only by you. Learn more »
launch autoscroll
font size
0
reset
how to read this tab
guitar tuner
edit
Autoscroll
slow
fast
+/-
esc
set tempo
stop
                                    GIVING IN
                              As recorded by Adema
                           (From the 2001 Album ADEMA)

Words and Music by Adema
Transcribed by scott666

Gtr I (Db Ab Db Gb Bb Eb) - 'Guitar 1'
Gtr II (Db Ab Db Gb Bb Eb) - 'Guitar 2'
Gtr III (Db Ab Db Gb Bb Eb) - 'Guitar 3'

 Intro
  Slow Rock Q=76
  N.C.
 4/4
  Gtr I
   PM--------------------------------------------
   S  S  S  S  S  S  S  S S  S S  S  S  S  S  S
|-----------------------------------------------|
|----10----10-10-10-10-10---10---10-10-10-10-10-|
|-10----10----------------9----9----------------|
|-----------------------------------------------|
|-----------------------------------------------|
|-----------------------------------------------|
|
| Gtr II
|  W
|-----------------------------------------------|
|-----------------------------------------------|
|-----------------------------------------------|
|-----------------------------------------------|
|-----------------------------------------------|
|-----------------------------------------------|


 ----------------------------------------------|
   S    S  S  S  S  S  S  S S  S S  S  S  S  S  S
|--------------------------------------------------|
|------10----10-10-10-10-10---10---10-10-10-10-10--|
|-10------10----------------9----9-----------------|
|--------------------------------------------------|
|--------------------------------------------------|
|--------------------------------------------------|
|
|  H..                                       E
|--------------------------------------------------|
|--------------------------------------------------|
|--------------------------------------------------|
|--------------------------------------------------|
|--------------------------------------------0-----|
|--------------------------------------------------|


  (A5)                    (C5)
   PM---------------------------------------------
   S  S  S  S  S  S  S  S S   S S  S  S  S  S  S
|------------------------------------------------|
|----10----10-10-10-10-10----10---10-10-10-10-10-|
|-10----10----------------9-----9----------------|
|------------------------------------------------|
|------------------------------------------------|
|------------------------------------------------|
|
|  S  S  S  S  S  S  S  S S   S S  S  S  S  S  S
|------------------------------------------------|
|------------------------------------------------|
|------------------------------------------------|
|------------------------------------------------|
|--0--0--0--0--0--0--0--0-3---3-3--3--3--3--3--3-|
|------------------------------------------------|
|
| Gtr III
|  H                      E.       S  S  S  E
|------------------------------------------------|
|------------------------------------------------|
|------------------------------------------------|
|------------------------------------------------|
|----------------------------------2--2h=3--2----|
|------------------------------------------------|


  (D5)
 ----------------------------------------------|
   S   S  S  S  S  S  S  S S   S S  S  S  S  S  S
|-------------------------------------------------|
|-----10----10-10-10-10-10----10---10-10-10-10-10-|
|-10-----10----------------9-----9----------------|
|-------------------------------------------------|
|-------------------------------------------------|
|-------------------------------------------------|
|
|  S   S  S  S  S  S  S  S S   S S  S  S  S  S  S
|-------------------------------------------------|
|-------------------------------------------------|
|-------------------------------------------------|
|-------------------------------------------------|
|-------------------------------------------------|
|--0---0--0--0--0--0--0--0-0---0-0--0--0--0--0--0-|
|
|  E.        S  S  S  E    E.       S  S  S  E
|-------------------------------------------------|
|-------------------------------------------------|
|-------------------------------------------------|
|-------------------------------------------------|
|-------------------------------------------------|
|------------0--0--2p=0-------------0--0--2p=0----|


  (A5)                     (C5)
   PM----------------------------------------------
   S   S  S  S  S  S  S  S S   S S  S  S  S  S  S
|-------------------------------------------------|
|-----10----10-10-10-10-10----10---10-10-10-10-10-|
|-10-----10----------------9-----9----------------|
|-------------------------------------------------|
|-------------------------------------------------|
|-------------------------------------------------|
|
|  S   S  S  S  S  S  S  S S   S S  S  S  S  S  S
|-------------------------------------------------|
|-------------------------------------------------|
|-------------------------------------------------|
|-------------------------------------------------|
|--0---0--0--0--0--0--0--0-3---3-3--3--3--3--3--3-|
|-------------------------------------------------|
|
|  E.        S  S  S  E    E.       S  S  S  E
|-------------------------------------------------|
|-------------------------------------------------|
|-------------------------------------------------|
|-------------------------------------------------|
|------------2--2h=3--2-------------0--0h=2--0----|
|-------------------------------------------------|


  (D5)
 ----------------------------------------------|
   S   S  S  S  S  S  S  S S   S S  S  S  S  S  S
|-------------------------------------------------||
|-----10----10-10-10-10-10----10---10-10-10-10-10-||
|-10-----10----------------9-----9----------------||
|-------------------------------------------------||
|-------------------------------------------------||
|-------------------------------------------------||
|
|  S   S  S  S  S  S  S  S H
|-------------------------------------------------||
|-------------------------------------------------||
|-------------------------------------------------||
|--0---0--0--0--0--0--0--0------------------------||
|-------------------------------------------------||
|-------------------------------------------------||
|
|  E.        S  S  S  E    E.       S  S  S  S  S
|-------------------------------------------------||
|-------------------------------------------------||
|-------------------------------------------------||
|-------------------------------------------------||
|-------------------------------------------------||
|------------2--2h=3--2-------------2--0h=2--0h=2-||


 Pre-Verse
  (A5)                     (C5)
   PM------------------------------------------------
   S   S  S  S  S  S  S  S  S   S  S  S  S  S  S  S
|---------------------------------------------------|
|-----10----10-10-10-10-10-----10----10-10-10-10-10-|
|-10-----10-----------------9------9----------------|
|---------------------------------------------------|
|---------------------------------------------------|
|---------------------------------------------------|
|
|  S   S  S  S  S  S  S  S  S   S  S  S  S  S  S  S
|---------------------------------------------------|
|---------------------------------------------------|
|---------------------------------------------------|
|--7---7--7--7--7--7--7--7-10--10-10-10-10-10-10-10-|
|--x---x--x--x--x--x--x--x--x---x--x--x--x--x--x--x-|
|--7---7--7--7--7--7--7--7-10--10-10-10-10-10-10-10-|
|
|  E.        S  S  S  E     E.        S  S  S  E
|---------------------------------------------------|
|---------------------------------------------------|
|---------------------------------------------------|
|---------------------------------------------------|
|------------0--2h=3--2---------------0--0h=2--0----|
|---------------------------------------------------|


  (D5)
 ----------------------------------------------|
   S   S  S  S  S  S  S  S S   S S  S  S  S  S  S
|-------------------------------------------------|
|-----10----10-10-10-10-10----10---10-10-10-10-10-|
|-10-----10----------------9-----9----------------|
|-------------------------------------------------|
|-------------------------------------------------|
|-------------------------------------------------|
|
|  S   S  S  S  S  S  S  S S   S S  S  S  S  S  S
|-------------------------------------------------|
|-------------------------------------------------|
|--7---7--7--7--7--7--7--7-7---7-7--7--7--7--7--7-|
|--x---x--x--x--x--x--x--x-x---x-x--x--x--x--x--x-|
|--5---5--5--5--5--5--5--5-5---5-5--5--5--5--5--5-|
|--0---0--0--0--0--0--0--0-0---0-0--0--0--0--0--0-|
|
|  E.        S  S  S  E    E.       S  S  S  S  S
|-------------------------------------------------|
|-------------------------------------------------|
|-------------------------------------------------|
|------------2--2h=3--2---------------------------|
|-----------------------------------2--2h=3--2h=3-|
|-------------------------------------------------|


  (A5)                     (C5)
   PM------------------------------------------------
   S   S  S  S  S  S  S  S  S   S  S  S  S  S  S  S
|---------------------------------------------------|
|-----10----10-10-10-10-10-----10----10-10-10-10-10-|
|-10-----10-----------------9------9----------------|
|---------------------------------------------------|
|---------------------------------------------------|
|---------------------------------------------------|
|
|  S   S  S  S  S  S  S  S  S   S  S  S  S  S  S  S
|---------------------------------------------------|
|---------------------------------------------------|
|---------------------------------------------------|
|--7---7--7--7--7--7--7--7-10--10-10-10-10-10-10-10-|
|--x---x--x--x--x--x--x--x--x---x--x--x--x--x--x--x-|
|--7---7--7--7--7--7--7--7-10--10-10-10-10-10-10-10-|
|
|  E.        S  S  S  E     E.        S  S  S  E
|---------------------------------------------------|
|---------------------------------------------------|
|---------------------------------------------------|
|---------------------------------------------------|
|------------0--2h=3--2---------------0--0h=2--0----|
|---------------------------------------------------|


  (D5)                     (F5)       (E5)
 ----------------------------------------------|
   S   S  S  S  S  S  S  S S   S S  S  S  S  S  S
|-------------------------------------------------|
|-----10----10-10-10-10-10----10---10-10-10-10-10-|
|-10-----10----------------9-----9----------------|
|-------------------------------------------------|
|-------------------------------------------------|
|-------------------------------------------------|
|
|  S   S  S  S  S  S  S  S S   S S  S  S  S  S  S
|-------------------------------------------------|
|-------------------------------------------------|
|-------------------------------------------------|
|-12--12-12-12-12-12-12-12-3---3-3--3--2--2--2--2-|
|--x---x--x--x--x--x--x--x-x---x-x--x--x--x--x--x-|
|-12--12-12-12-12-12-12-12-3---3-3--3--2--2--2--2-|
|
|  E.        S  S  S  E    E.       S  S  S  S  S
|-------------------------------------------------|
|-------------------------------------------------|
|-------------------------------------------------|
|------------2--2h=3--2---------------------------|
|-----------------------------------2--2h=3--2h=3-|
|-------------------------------------------------|


  $
  (A5)                     (C5)
   PM------------------------------------------------
   S   S  S  S  S  S  S  S  S   S  S  S  S  S  S  S
|---------------------------------------------------|
|-----10----10-10-10-10-10-----10----10-10-10-10-10-|
|-10-----10-----------------9------9----------------|
|---------------------------------------------------|
|---------------------------------------------------|
|---------------------------------------------------|
|
|  S   S  S  S  S  S  S  S  S   S  S  S  S  S  S  S
|---------------------------------------------------|
|---------------------------------------------------|
|---------------------------------------------------|
|--7---7--7--7--7--7--7--7-10--10-10-10-10-10-10-10-|
|--x---x--x--x--x--x--x--x--x---x--x--x--x--x--x--x-|
|--7---7--7--7--7--7--7--7-10--10-10-10-10-10-10-10-|
|
|  E.        S  S  S  E     E.        S  S  S  E
|---------------------------------------------------|
|---------------------------------------------------|
|---------------------------------------------------|
|---------------------------------------------------|
|------------0--2h=3--2---------------0--0h=2--0----|
|---------------------------------------------------|


  (D5)
 ----------------------------------------------|
   S   S  S  S  S  S  S  S S   S S  S  S  S  S  S
|-------------------------------------------------|
|-----10----10-10-10-10-10----10---10-10-10-10-10-|
|-10-----10----------------9-----9----------------|
|-------------------------------------------------|
|-------------------------------------------------|
|-------------------------------------------------|
|
|  S   S  S  S  S  S  S  S S   S S  S  S  S  S  S
|-------------------------------------------------|
|-------------------------------------------------|
|--7---7--7--7--7--7--7--7-7---7-7--7--7--7--7--7-|
|--x---x--x--x--x--x--x--x-x---x-x--x--x--x--x--x-|
|--5---5--5--5--5--5--5--5-5---5-5--5--5--5--5--5-|
|--0---0--0--0--0--0--0--0-0---0-0--0--0--0--0--0-|
|
|  E.        S  S  S  E    E.       S  S  S  S  S
|-------------------------------------------------|
|-------------------------------------------------|
|-------------------------------------------------|
|------------2--2h=3--2---------------------------|
|-----------------------------------2--2h=3--2h=3-|
|-------------------------------------------------|


  (A5)                     (C5)
   PM------------------------------------------------
   S   S  S  S  S  S  S  S  S   S  S  S  S  S  S  S
|---------------------------------------------------|
|-----10----10-10-10-10-10-----10----10-10-10-10-10-|
|-10-----10-----------------9------9----------------|
|---------------------------------------------------|
|---------------------------------------------------|
|---------------------------------------------------|
|
|  S   S  S  S  S  S  S  S  S   S  S  S  S  S  S  S
|---------------------------------------------------|
|---------------------------------------------------|
|---------------------------------------------------|
|--7---7--7--7--7--7--7--7-10--10-10-10-10-10-10-10-|
|--x---x--x--x--x--x--x--x--x---x--x--x--x--x--x--x-|
|--7---7--7--7--7--7--7--7-10--10-10-10-10-10-10-10-|
|
|  E.        S  S  S  E     E.        S  S  S  E
|---------------------------------------------------|
|---------------------------------------------------|
|---------------------------------------------------|
|---------------------------------------------------|
|------------0--2h=3--2---------------0--0h=2--0----|
|---------------------------------------------------|


  (D5)                     (F5)       (E5)
 ----------------------------------------------|
   S   S  S  S  S  S  S  S S   S S  S  S  S  S  S
|-------------------------------------------------||
|-----10----10-10-10-10-10----10---10-10-10-10-10-||
|-10-----10----------------9-----9----------------||
|-------------------------------------------------||
|-------------------------------------------------||
|-------------------------------------------------||
|
|  S   S  S  S  S  S  S  S S   S S  S  S  S  S  S
|-------------------------------------------------||
|-------------------------------------------------||
|-------------------------------------------------||
|-12--12-12-12-12-12-12-12-3---3-3--3--2--2--2--2-||
|--x---x--x--x--x--x--x--x-x---x-x--x--x--x--x--x-||
|-12--12-12-12-12-12-12-12-3---3-3--3--2--2--2--2-||
|
|  E.        S  S  S  E    E.       S  S  S  S  S
|-------------------------------------------------||
|-------------------------------------------------||
|-------------------------------------------------||
|------------2--2h=3--2---------------------------||
|-----------------------------------2--2h=3--2h=3-||
|-------------------------------------------------||


   Verse
    (A5)                    (F5)
     PM---------------------------------------------
     S  S  S  S  S  S  S  S S   S S  S  S  S  S  S
||-------------------------------------------------|
||o----10----10-10-10-10-10----10---10-10-10-10-10-|
||--10----10----------------9-----9----------------|
||-------------------------------------------------|
||o------------------------------------------------|
||-------------------------------------------------|
|
|   Gtr III
|    E     E     S  S  E    E.       S  S  S  E
||-------------------------------------------------|
||o------------------------------------------------|
||-------------------------------------------------|
||-------------------------------------------------|
||o--0-----0-----2h=3--2-------------0--0h=2--0----|
||-------------------------------------------------|


  (Bb5)                    (E5)
 ----------------------------------------------|
   S   S  S  S  S  S  S  S S   S S  S  S  S  S  S   4x
|---------------------------------------------------||
|-----10----10-10-10-10-10----10---10-10-10-10-10--o||
|-10-----10----------------9-----9------------------||
|---------------------------------------------------||
|--------------------------------------------------o||
|---------------------------------------------------||
|
|  E.        S  S  S  E    E.       S  S  S  S  S   4x
|---------------------------------------------------||
|--------------------------------------------------o||
|---------------------------------------------------||
|---------------------------------------------------||
|-----------------------------------2--2h=3--2h=3--o||
|------------2--2h=3--2-----------------------------||


   Chorus
    $$
    (A5)      (C5)                     (D5)
     S S E  E  S  S  S     S  S  S  E   S  S
||-------------------------------------------|
||o------------------------------------------|
||-------------------------------------------|
||---7-7-7--7S10-10-10----10-10-10-10--12-12-|
||o--x-x-x--x--x--x--x-----x--x--x--x---x--x-|
||---7-7-7--7S10-10-10----10-10-10-10--12-12-|
|
|    Q      E  E     Q             +Q
||-------------------------------------------|
||o-10---------------------------------------|
||---------12-12-----9b10r=========(9)-------|
||-------------------------------------------|
||o------------------------------------------|
||-------------------------------------------|


                    (G5)
   S  S  S  S  E  S  S  S  S  S  S  S  S  S  S
|----------------------------------------------|
|----------------------------------------------|
|----------------------------------------------|
|-12-12-12-12-12-17-17-17-17-17-17-17-17-17-17-|
|--x--x--x--x--x--x--x--x--x--x--x--x--x--x--x-|
|-12-12-12-12-12-17-17-17-17-17-17-17-17-17-17-|
|
|                 ~~~~~~~~~~~~~~~~~~~~~~~~~~~~~
|  S  S  S  S  E  S  S  S  S  S  S  S  S  S  S
|----------------------------------------------|
|----------------------------------------------|
|--7--7--7--7--7S12-12-12-12-12-12-12-12-12-12-|
|--x--x--x--x--x--x--x--x--x--x--x--x--x--x--x-|
|--5--5--5--5--5S10-10-10-10-10-10-10-10-10-10-|
|----------------------------------------------|


  (A5)      (C5)                    (D5)
   S S E  E  S  S  S     S  S  S  E  S  S
|-----------------------------------------|
|-----------------------------------------|
|-----------------------------------------|
|--7-7-7--7S10-10-10----10-10-10-10-12-12-|
|--x-x-x--x--x--x--x-----x--x--x--x--x--x-|
|--7-7-7--7S10-10-10----10-10-10-10-12-12-|
|
|  Q      E  E     Q              Q
|-----------------------------------------|
|-10--------------------------------------|
|--------12-12-----9b10-----------9-------|
|-----------------------------------------|
|-----------------------------------------|
|-----------------------------------------|


                                 D.S.
                                 D.S.
                   (G5)
   S  S  S  S  E   S S S S S S S S S S
|---------------------------------------||
|--------------------------------------o||
|---------------------------------------||
|-12-12-12-12-12---5-5-5-5-5-5-5-5-5-5--||
|--x--x--x--x--x---x-x-x-x-x-x-x-x-x-x-o||
|-12-12-12-12-12---5-5-5-5-5-5-5-5-5-5--||
|
|  S  S  S  S  S S S S S S S S S S S S
|---------------------------------------||
|--------------------------------------o||
|--7--7--7--7--7------------------------||
|--x--x--x--x--x-5-5-5-5-5-5-5-5-5-5-5--||
|--5--5--5--5--5-x-x-x-x-x-x-x-x-x-x-x-o||
|----------------5-5-5-5-5-5-5-5-5-5-5--||


 Guitar Solo
  (A5)              (C5)
  S S S S S S S   S  S   S  S  S  S  S  S  S
|--------------------------------------------|
|--------------------------------------------|
|--------------------------------------------|
|-7-7-7-7-7-7-7---7-10--10-10-10-10-10-10-10-|
|-x-x-x-x-x-x-x---x--x---x--x--x--x--x--x--x-|
|-7-7-7-7-7-7-7---7-10--10-10-10-10-10-10-10-|
|
| Q       S S S a S +S   S  E     S  S  S  S
|--------------------------------------------|
|--------------------------------------------|
|---------5-7-5-7s9-(9)--7--5-----5--7--5----|
|------------------------------------------7-|
|--------------------------------------------|
|--------------------------------------------|


  (D5)
   S  S S S S S S    S   S  S S S  S  S S S
|--------------------------------------------|
|--------------------------------------------|
|--7--7-7-7-7-7-7----7---7--7-7-7--7--7-7-7--|
|--x--x-x-x-x-x-x----x---x--x-x-x--x--x-x-x--|
|--5--5-5-5-5-5-5----5---5--5-5-5--5--5-5-5--|
|--0--0-0-0-0-0-0----0---0--0-0-0--0--0-0-0--|
|
| +E    E   S S S    S  +S  S S S +S  S S S
|--------------------------------------------|
|------------------/10-(10)------------------|
|-----------5-7-5/----------7-5-4-(4)h5-4----|
|-(7)---5---------------------------------7--|
|--------------------------------------------|
|--------------------------------------------|


  (A5)                (C5)
   S  S S S S S S   S  S   S  S  S  S  S  S  S
|----------------------------------------------|
|----------------------------------------------|
|----------------------------------------------|
|--7--7-7-7-7-7-7---7-10--10-10-10-10-10-10-10-|
|--x--x-x-x-x-x-x---x--x---x--x--x--x--x--x--x-|
|--7--7-7-7-7-7-7---7-10--10-10-10-10-10-10-10-|
|
| +E    E   S S S a S +S   S  E     S  S  S  S
|----------------------------------------------|
|----------------------------------------------|
|-----------5-7-5-7s9-(9)--7--5-----5--7--5----|
|-(7)---7------------------------------------7-|
|----------------------------------------------|
|----------------------------------------------|


  (D5)                       (F5)       (E5)
   S   S  S  S  S  S  S    S   S  S S S  S  S S S
|--------------------------------------------------||
|--------------------------------------------------||
|--------------------------------------------------||
|-12--12-12-12-12-12-12---12---3--3-3-3--2--2-2-2--||
|--x---x--x--x--x--x--x----x---x--x-x-x--x--x-x-x--||
|-12--12-12-12-12-12-12---12---3--3-3-3--2--2-2-2--||
|
| +E      E     S  S  S    S  +S  S S S +S  S S S
|--------------------------------------------------||
|------------------------/10-(10)------------------||
|---------------5--7--5/----------7-5-4-(4)h5-4----||
|-(7)-----5-------------------------------------7--||
|--------------------------------------------------||
|--------------------------------------------------||


 Bridge
  (A5)            (F5)
  Gtr I
  W
|---------------------------------|
|---------------------------------|
|---------------------------------|
|-7-------------------------------|
|-x-------------------------------|
|-7-------------------------------|
|
| Gtr II
| S S S S S S S S S S S S S S S S
|---------------------------------|
|---------------------------------|
|---------------------------------|
|---------------------------------|
|-0-0-0-0-0-0-0-0-----------------|
|-----------------3-3-3-3-3-3-3-3-|
|
| Gtr III
| W
|---------------------------------|
|---------------------------------|
|---------------------------------|
|---------------------------------|
|---------------------------------|
|---------------------------------|


  (E5)              (Eb5)              (A5) (F5)   (E5) (Eb5)
   >
  +W                                   W           W
|------------------------------------|-----------|--------------------|
|------------------------------------|-----------|--------------------|
|------------------------------------|-----------|--------------------|
|-(7)--------------------------------|-----------|--------------------|
|-(x)--------------------------------|-----------|--------------------|
|-(7)--------------------------------|-----------|--------------------|
|
|  S  S S S S S S S S  S S S S S S S   W           W
|------------------------------------|-----------|--------------------|
|------------------------------------|-----------|--------------------|
|------------------------------------|-----------|--------------------|
|------------------------------------|-----------|--------------------|
|------------------------------------|-----------|--------------------|
|--2--2-2-2-2-2-2-2-1--1-1-1-1-1-1-1-|-----------|--------------------|
|
|  H                E.     S S S S S   H    H      H    E. S S S S S
|------------------------------------|-----------|--------------------|
|------------------------------------|-----------|--------------------|
|------------------------------------|-----------|--------------------|
|------------------------------------|-----------|--------------------|
|--------------------------0-2h3-2h3-|-0----3----|---------0-2h3-2h3--|
|------------------------------------|-----------|-2----1-------------|


  (A5) (F5)   (E5) (Eb5)          (A5)              (G/B)
  Gtr III
                                                    <
  H    H      H    E. S S S S S   S S S S S S S S S S S S S S S S
|-----------|-------------------|---------------------------------|
|-----------|-------------------|---------------------------------|
|-----------|-------------------|---------------------------------|
|-----------|-------------------|---------------------------------|
|-0---------|---------0-2h3-2h3-|-0-0-0-0-0-0-0-0-0-2-2-2-2-2-2-2-|
|------3----|-2----1------------|---------------------------------|


  (C5)            (Eb5)
        <
  S S S S S S S S S S S S S S S S
|----------------------------------|
|----------------------------------|
|----------------------------------|
|----------------------------------|
|-3-3-3-3-3-3-3-3-6-6-6-6-6-6-6-6--|
|----------------------------------|


 Chorus
  (A5)         (F5)
  Gtr I
  E  E   Q     E  E   Q
|---------------------------|
|---------------------------|
|---------------------------|
|-7--7---------3--3---------|
|-x--x---------x--x---------|
|-7--7---------3--3---------|
|
| Gtr III
|            ~            ~
| E.   S S S E E.   S S S E
|--------7h8-7------5-5h7-5-|
|---------------------------|
|---------------------------|
|------7--------------------|
|---------------------------|
|---------------------------|


  (E5)         (Eb5)              (A5)      (F5)
  E  E   Q     E  S S S S S S     E E Q     E  E   Q
|-----------------------------||--------------------------|
|-----------------------------||o-------------------------|
|-----------------------------||--------------------------|
|-2--2---------1--1-1-1-1-1-1-||--7-7-------3--3----------|
|-x--x---------x--x-x-x-x-x-x-||o-x-x-------x--x----------|
|-2--2---------1--1-1-1-1-1-1-||--7-7-------3--3----------|
|
|            ~                            ~            ~
| E.   S S S E E.   S S S S S     E E S S E E.   S S S E
|-----------------------------||------7h8-7------5-5h7-5--|
|------5-5h6-5----------------||o-------------------------|
|---------------------4h5-4h5-||--------------------------|
|-------------------7---------||--7-7---------------------|
|-----------------------------||o-------------------------|
|-----------------------------||--------------------------|


  (E5)         (Eb5)
  E  E   Q     E  S S S S S S
|------------------------------||
|-----------------------------o||
|------------------------------||
|-2--2---------1--1-1-1-1-1-1--||
|-x--x---------x--x-x-x-x-x-x-o||
|-2--2---------1--1-1-1-1-1-1--||
|
|            ~
| E.   S S S E E.   S S S S S
|------------------------------||
|------5-5h6-5----------------o||
|---------------------4h5-4h5--||
|-------------------7----------||
|-----------------------------o||
|------------------------------||


                                        D.S.S. al Coda
  A5        F5             E5       Eb5
  E E Q     E  E   Q       E  E   E E +H
|------------------------|-----------------------------||
|------------------------|-----------------------------||
|------------------------|-----------------------------||
|-7-7-------3--3---------|-2--2---2-1-(1)--------------||
|-7-7-------3--3---------|-2--2---2-1-(1)--------------||
|-7-7-------3--3---------|-2--2---2-1-(1)--------------||
|
|         ~            ~            ~~~~~~
| E E S S E E.   S S S E   E.   S E E +E  S S S S S S
|-----7h8-7------5-5h7-5-|-----------------------------||
|------------------------|--------5-4-(4)-5-5-5-5-5-5--||
|------------------------|-----------------------------||
|-7-7--------------------|------7----------------------||
|------------------------|-----------------------------||
|------------------------|-----------------------------||


 Out-Chorus
  &
  (A5)           (C5)                      (D5)
  Gtr II
   S  S E    E    S  S  S     S  S  S  E    S  S
|------------------------------------------------|
|------------------------------------------------|
|------------------------------------------------|
|--7--7-7----7S==10-10-10----10-10-10-10---12-12-|
|--x--x-x----x----x--x--x-----x--x--x--x----x--x-|
|--7--7-7----7S==10-10-10----10-10-10-10---12-12-|
|
| Gtr III
|  E.     S  S S  E     E.          S  S S  E
|------------------------------------------------|
|------------------------------------------------|
|------------------------------------------------|
|------------------------------------------------|
|---------0--2h3--2-----------------0--0h2--0----|
|------------------------------------------------|
|
| Gtr I
|  Q         Q          Q              Q
|-17--------15-----------------------------------|
|----------------------17b18----------17---------|
|------------------------------------------------|
|------------------------------------------------|
|------------------------------------------------|
|------------------------------------------------|


                    (G5)
   S   S  S  S  E    S  S  S   S  S  S  S  S  S  S
|--------------------------------------------------|
|--------------------------------------------------|
|--------------------------------------------------|
|-12--12-12-12-12---17-17-17--17-17-17-17-17-17-17-|
|--x---x--x--x--x----x--x--x---x--x--x--x--x--x--x-|
|-12--12-12-12-12---17-17-17--17-17-17-17-17-17-17-|
|
|  E.        S  S S  E     E.        S  S  S  S  S
|--------------------------------------------------|
|--------------------------------------------------|
|--------------------------------------------------|
|------------2--2h3--2-----------------------------|
|------------------------------------2--2h=3--2h=3-|
|--------------------------------------------------|
|
|                          ~~~~~~~~~~~~~~~~~~~~~~~~
|  Q.                E     S   S  S  S  S  S  S  S
|--------------------------------------------------|
|-15-----------------------------------------------|
|-------------------12----12--12-12-12-12-12-12-12-|
|--------------------x-----x---x--x--x--x--x--x--x-|
|-------------------10----10--10-10-10-10-10-10-10-|
|--------------------------------------------------|


  (A5)           (C5)                      (D5)
   S  S E    E    S  S  S     S  S  S  E    S  S
|------------------------------------------------|
|------------------------------------------------|
|------------------------------------------------|
|--7--7-7----7S==10-10-10----10-10-10-10---12-12-|
|--x--x-x----x----x--x--x-----x--x--x--x----x--x-|
|--7--7-7----7S==10-10-10----10-10-10-10---12-12-|
|
|  E.     S  S S  E     E.          S  S S  E
|------------------------------------------------|
|------------------------------------------------|
|------------------------------------------------|
|------------------------------------------------|
|---------0--2h3--2-----------------0--0h2--0----|
|------------------------------------------------|
|
|  Q         Q          Q              Q
|-17--------15-----------------------------------|
|----------------------17b18----------17---------|
|------------------------------------------------|
|------------------------------------------------|
|------------------------------------------------|
|------------------------------------------------|


                    (G5)
   S   S  S  S  E    S S  S   S  S  S  S  S  S  S
|-------------------------------------------------||
|-------------------------------------------------||
|-------------------------------------------------||
|-12--12-12-12-12----5-5--5---5--5--5--5--5--5--5-||
|--x---x--x--x--x----x-x--x---x--x--x--x--x--x--x-||
|-12--12-12-12-12----5-5--5---5--5--5--5--5--5--5-||
|
|  E.        S  S S  E    E.        S  S  S  S  S
|-------------------------------------------------||
|-------------------------------------------------||
|-------------------------------------------------||
|------------2--2h3--2----------------------------||
|-----------------------------------2--2h=3--2h=3-||
|-------------------------------------------------||
|
|                         ~~~~~~~~~~~~~~~~~~~~~~~~
|  Q.                E    S   S  S  S  S  S  S  S
|-------------------------------------------------||
|-15----------------------------------------------||
|-------------------12---12--12-12-12-12-12-12-12-||
|--------------------x----x---x--x--x--x--x--x--x-||
|-------------------10---10--10-10-10-10-10-10-10-||
|-------------------------------------------------||


 Outro
  (A)
  Gtr I
   W           S   S  S  S  S  S  S  S S  S S  S  S  S  S  S
|-17--------|------------------------------------------------|
|-----------|-----10----10-10-10-10-10---10---10-10-10-10-10-|
|-----------|-10-----10----------------9----9----------------|
|-----------|------------------------------------------------|
|-----------|------------------------------------------------|
|-----------|------------------------------------------------|
|
|              >
|  W          +W
|-----------|------------------------------------------------|
|-----------|------------------------------------------------|
|-----------|------------------------------------------------|
|--7--------|-(7)--------------------------------------------|
|--0--------|-(0)--------------------------------------------|
|--7--------|-(7)--------------------------------------------|


   S   S  S  S  S  S  S  S S  S S  S  S  S  S  S    S  S  S  S  S  S  S  S  +H
|------------------------------------------------|---------------------------------*|
|-----10----10-10-10-10-10---10---10-10-10-10-10-|----10----10-10-10-10-10-(10)----*|
|-10-----10----------------9----9----------------|-10----10------------------------*|
|------------------------------------------------|---------------------------------*|
|------------------------------------------------|---------------------------------*|
|------------------------------------------------|---------------------------------*|
|
| +W                                                W
|------------------------------------------------|---------------------------------*|
|------------------------------------------------|---------------------------------*|
|------------------------------------------------|---------------------------------*|
|-(7)--------------------------------------------|---------------------------------*|
|-(0)--------------------------------------------|---------------------------------*|
|-(7)--------------------------------------------|---------------------------------*|


Duration Legend
---------------
W - whole; H - half; Q - quarter; E - 8th; S - 16th; T - 32nd; X - 64th; a - acciaccatura
+ - note tied to previous; . - note dotted; .. - note double dotted
Uncapitalized letters represent notes that are staccato (1/2 duration)
Irregular groupings are notated above the duration line
Duration letters will always appear directly above the note/fret number it represents the
duration for.  Duration letters with no fret number below them represent rests.  Multi-
bar rests are notated in the form Wxn, where n is the number of bars to rest for.  Low
melody durations appear below the staff

Tablature Legend
----------------
 h   - hammer-on
 p   - pull-off
 b   - bend
 pb  - pre-bend
 r   - bend release (if no number after the r, then release immediately)
 /\  - slide into or out of (from/to "nowhere")
 s   - legato slide
 S   - shift slide
  - natural harmonic
[n]  - artificial harmonic
n(n) - tapped harmonic
 ~   - vibrato
 tr  - trill
 T   - tap
 TP  - trem. picking
 PM  - palm muting
\n/  - tremolo bar dip; n = amount to dip
 \n  - tremolo bar down
 n/  - tremolo bar up
/n\  - tremolo bar inverted dip
 =   - hold bend; also acts as connecting device for hammers/pulls
 <>  - volume swell (louder/softer)
 x   - on rhythm slash represents muted slash
 o   - on rhythm slash represents single note slash

Misc Legend
-----------
 |  - bar
||  - double bar
||o - repeat start
o|| - repeat end
*|  - double bar (ending)
 :  - bar (freetime)
 $  - Segno
 &  - Coda
Tempo markers -  = BPM(8/16=s8/s16), where s8 = swing 8ths, s16 = swing 16ths
Suggest correction
Creating personal tab
Creating personal tab
You can edit any tab online and save it as your Personal.

You can edit, replace or remove any tab part or add personal notes – all changes will be seen only by you.

Personal tabs can be accessed anytime from any device, even offline.
Learn more »
Give kudos to tab author, rate the tab!
1 2 3 4 5
comments
print report bad tab
guest
You may want to rate the tab now too:
select rating
Wanna post a correction for this tab? Suggest correction