Oops, an error
Loading. Please wait.

Promises tab

version 3
version 3

Whole song

Interactive

by Adema
8,653 views 3 this week
5 commentsread comments
1 2 3 4 5
x 6
add to favorites
×
Save as Personal and add changes to this tab that will be seen only by you. Learn more ›
×
You can save this tab as Personal to edit and correct it or add notes. All changes will be seen only by you. Learn more »
launch autoscroll
font size
0
reset
how to read this tab
guitar tuner
edit
Autoscroll
slow
fast
+/-
esc
set tempo
stop
Author
-------------------------------------------------------------------------------
                             Promises - Adema
-------------------------------------------------------------------------------
Tabbed by: bloodred16
Email: happytreefriends_firstblood@hotmail.com

This is a very easy song to play and i noticed that all the tabs were way off,
so here's how i think it's played, and i reckon if its not 100% it's pretty close!
So enjoi... it sounds good!

Tuning: Drop D down half a step (DbAbDbGbBbeb)

Guitar 1 - Acoustic
Guitar 2 - Electric

Intro - Gtr.1
Rhy. Fig. 1A (x4)
eb|--------------------------------------------------------------------------|
Bb|--------------------------------------------------------------------------|
Gb|6--6--6-6--9-9--9--9--9-9--4-4--4--4--4-4--2-2--2--2--2-2-----------------|
Db|4--4--4-4--7-7--7--7--7-7--2-2--2--2--2-2--0-0--0--0--0-0-----------------|
Ab|4--4--4-4--7-7--7--7--7-7--2-2--2--2--2-2--0-0--0--0--0-0-----------------|
Db|4--4--4-4--7-7--7--7--7-7--2-2--2--2--2-2--0-0--0--0--0-0-----------------|

Gtr.2 - clean tone, with delay. {Listen for when to play with Rhy. Fig. 1A}
Fill A
eb|--------------------------------------------------------------------------|
Bb|--------------------------------------------------------------------------|
Gb|13-14----11----14-14-14-14-14---------------------------------------------|
Db|--------------------------------------------------------------------------|
Ab|--------------------------------------------------------------------------|
Db|--------------------------------------------------------------------------|

Gtr.2 - distortion {After Rhy. Fig. 1A x2)
Rhy. Fig. 1B (x2)
eb|--------------------------------------------------------------------------|
Bb|--------------------------------------------------------------------------|
Gb|--------------------------------------------------------------------------|
Db|4--4--4-4--7-7--7--7--7-7--2-2--2--2--2-2--0-0--0--0--0-0-----------------|
Ab|4--4--4-4--7-7--7--7--7-7--2-2--2--2--2-2--0-0--0--0--0-0-----------------|
Db|4--4--4-4--7-7--7--7--7-7--2-2--2--2--2-2--0-0--0--0--0-0-----------------|

Verse - Gtr.1 - Rhy. Fig. 1A (x4)

Gtr.2 - clean tone, with delay.
Rhy. Fig. 2
eb|--------------------------------------------------------------------------|
Bb|--------------------------------------------------------------------------|
Gb|11-13--14----11-13--14----14-14-14-14-14--11-13--14----11-13--14-13-------|
Db|--------------------------------------------------------------------------|
Ab|--------------------------------------------------------------------------|
Db|--------------------------------------------------------------------------|
                             PM-----|

eb|--------------------------------------------------------------------------|
Bb|--------------------------------------------------------------------------|
Gb|14-14-14-14-14------------------------------------------------------------|
Db|--------------------------------------------------------------------------|
Ab|--------------------------------------------------------------------------|
Db|--------------------------------------------------------------------------|
   PM-----|

Pre-Chorus
Gtr.2 - distortion
Rhy. Fig. 3
eb|--------------------------------------------------------------------------|
Bb|--------------------------------------------------------------------------|
Gb|--------------------------2-2-4-------------------------------------------|
Db|4-4-4-4-2--4-4-4-4----4-4--------4-4--4-4-4-4-----------------------------|
Ab|4-4--------4-4--------4-4--------4-4--4-4-4-4-----------------------------|
Db|4-4--------4-4-----2--4-4--------4-4--4-4-4-4-----------------------------|

Chorus - Gtr.2 - Rhy. Fig. 1B (x4)
Verse - Gtr.1 - Rhy. Fig. 1A (x4)
      - Gtr. 2 - Rhy. Fig. 2
Pre-Chorus - Gtr. 2 - Rhy. Fig. 3
Chorus - Gtr. 2 - Rhy. Fig. 1B (x4)

Bridge
Gtr.2 - distortion
Rhy. Fig. 4 (x2)
eb|--------------------------------------------------------------------------|
Bb|--------------------------------------------------------------------------|
Gb|--------------------------------------------------------------------------|
Db|4-4-4-4-2--4-4-4-4-2--4-4-4-4-2--4-4-4-4-2--0-0--------0-0--------0-0-----|
Ab|4-4--------4-4--------4-4--------4-4--------0-0-4-4-0--0-0-4-4-0--0-0-4-4-|
Db|4-4--------4-4--------4-4--------4-4--------0-0--------0-0--------0-0-----|

eb|--------------------------------------------------------------------------|
Bb|--------------------------------------------------------------------------|
Gb|--------------------------------------------------------------------------|
Db|---0-0--------------------------------------------------------------------|
Ab|0--0-0-4-4-0--------------------------------------------------------------|
Db|---0-0--------------------------------------------------------------------|

eb|--------------------------------------------------------------------------|
Bb|--------------------------------------------------------------------------|
Gb|--------------------------------------------------------------------------|
Db|7-7-7-7-7-7-7-7-12-12-12-12-12-12-12-12-----------------------------------|
Ab|7-7-7-7-7-7-7-7-12-12-12-12-12-12-12-12-----------------------------------|
Db|7-7-7-7-7-7-7-7-12-12-12-12-12-12-12-12-----------------------------------|

Keyboard Line

Chorus - Gtr.2 - Rhy. Fig. 1B (x8)

Keyboard Outro

|PM--|    Palm Mute
===============================================================================

            
            
Suggest correction
Creating personal tab
Creating personal tab
You can edit any tab online and save it as your Personal.

You can edit, replace or remove any tab part or add personal notes – all changes will be seen only by you.

Personal tabs can be accessed anytime from any device, even offline.
Learn more »
comments
print report bad tab
5 comments total. Showing first comments.
+2 reply
jaames 1,351 Mar 25, 2006 09:33 AM

i was in the middle of tabbing this song, but this tabs not too bad, the best one i've seen yet, but i was leaning a little more to this....for the main power chords...
Intro (strum every string)
e|--x-x-x-x-x---x-x-x-x-x---x-x-x-x-x---x-x-x-x-x---|
B|--x-x-x-x-x---x-x-x-x-x---x-x-x-x-x---x-x-x-x-x---|
G|--x-x-x-x-x---6-6-6-6-6---1-1-1-1-1---7-7-7-7-7---|
D|--4-4-4-4-4---7-7-7-7-7---2-2-2-2-2---0-0-0-0-0---|
A|--4-4-4-4-4---7-7-7-7-7---2-2-2-2-2---0-0-0-0-0---|
D|--4-4-4-4-4---7-7-7-7-7---2-2-2-2-2---0-0-0-0-0---|

0 reply
bloodred16 801 Mar 26, 2006 03:19 AM

Dude i think you might be right, hmmm i dunno, they're both close though!! but i'm going with your way! Cheers man!

0 reply
jaames 1,351 Mar 26, 2006 08:47 PM

ya i'm not totally sure how they play it exactly, but i think you got the bulk of the song pretty down pat, i gave it a 5.

guest
You may want to rate the tab now too:
select rating
Wanna post a correction for this tab? Suggest correction