Oops, an error
Loading. Please wait.

Head Up High bass

297 views 1 this week
no commentswrite comment
1 2 3 4 5
3 more votes to show rating
add to favorites
×
Save as Personal and add changes to this tab that will be seen only by you. Learn more ›
×
You can save this tab as Personal to edit and correct it or add notes. All changes will be seen only by you. Learn more »
launch autoscroll
font size
0
reset
guitar tuner
edit
Autoscroll
slow
fast
+/-
esc
set tempo
stop
Difficulty
intermediate
TUNING = REGULAR E,A,D,G

gotta love the a bit the old ADEQUATE SEVEN, went to there final gig in cardiff
was amazin. 1 year ago.

intro
------------------------|
------------------------| unsure of whether there is a chord after each note
------------------------|
--0-0---0-0---0-0---0-0-|  

verse
----------------------2-------------------------9--|
-----------5-3-2-3-5----------------5-3-2-3-5------|
--0--2--3------------------0--2--3-----------------|  X4  
---------------------------------------------------|

CHORUS
------------------------------------|      |------------------------|
------------------------------------|      |------------------------|
--0--0---3-3-3-3--------------------|  X4  |------------------------|
------------------1-1-1-1--3-3-3-3--|      |--0-0---0-0---0-0---0-0-|

VERSE 2 
----------------------2-------------------------9--|
-----------5-3-2-3-5----------------5-3-2-3-5------|
--0--2--3------------------0--2--3-----------------|  X4    
---------------------------------------------------|

CHORUS for the 2nd time
------------------------------------|      |------------------------|
------------------------------------|      |------------------------|
--0--0---3-3-3-3--------------------|  X4  |------------------------|
------------------1-1-1-1--3-3-3-3--|      |--0-0---0-0---0-0---0-0-|

interlude
-------------------------------|
-------------------------------|
--2---0---5------2---0---5--2--|
-------------0-----------------|

bridge
-------------------------------------------------------------|
-------------------------------------------------------------|
--3333333333333333333333-5555555555555-----------------------|  X4
-----------------------------------------0-0--2-2--3-3--5-5--|

LAST CHORUS 
------------------------------------|      |------------------------|
------------------------------------|      |------------------------|
--0--0---3-3-3-3--------------------|  X8  |------------------------|
------------------1-1-1-1--3-3-3-3--|      |--0-0---0-0---0-0---0-0-|


THAT TOOK ME AGES I FEEL SORRY FOR THE PEOPLE OUT THERE WHO TAB STUFF LIKE
DRAGONFORCE OR FALL OF TROY.

            
            
Suggest correction
Creating personal tab
Creating personal tab
You can edit any tab online and save it as your Personal.

You can edit, replace or remove any tab part or add personal notes – all changes will be seen only by you.

Personal tabs can be accessed anytime from any device, even offline.
Learn more »
Give kudos to tab author, rate the tab!
1 2 3 4 5
comments
print report bad tab
guest
Wanna post a correction for this tab? Suggest correction