Oops, an error
Loading. Please wait.

This Ship A Coffin Tab

2,048 views 3 this week
no commentswrite comment
1 2 3 4 5
x 4
add to favorites
launch autoscroll
font size
0
reset
how to read this tab
guitar tuner
Autoscroll
slow
fast
+/-
esc
set tempo
stop
Help us to improve Ultimate-Guitar.com Take our survey!
×
Author
Difficulty
Tuning
novice
C G C F A D
-----------------------------------------------------------------------------
                             This Ship, A Coffin - Adestria
-----------------------------------------------------------------------------
Tabbed by: AdamGuion
E-mail:AdamGuion@gmail.com

Pretty awesome song by a not too well known band. This what I've had for a while and 
I've just been a bit too lazy to finish it right now so hopefully someone more talented 
than I can complete it. There's definitely some parts I'm not completely sure of cuz the
 I just can'r pick out the guitars. Cheers

Tuning: Drop C

Guitar One plays this four times. Guitar Two plays it twice then starts the solo at
 0:33 that I haven’t tabbed yet.
0:17- 0:50
D|--------------------------------------------------------------------|
A|--------------------------------------------------------------------|
F|--------------------------------------------------------------------|
C|-0~~~~~~---0~~~~~~~~---5~-------8~~~~7~~~---------------------------| X4
G|-0~~~~~~---0~~~~~~~~---5~-------8~~~~7~~~---------------------------|
C|-0~~~~~~-0-0~~~~~~~~---5~-------8~~~~7~~~---------------------------|
           .
Guitar One           
0:50- 1:07
D|--------------------------------------------------------------------------|
A|--------------------------------------------------------------------------|
F|--------------------------------------------------------------------------|
C|-------------------------------------------------------8---7---5----------|
G|-----8---12---8- -10---10---12---12-------8---12---8---------------7h8----|
C|-0-0---0----0---0----0----0----0-----0-0----0----0---0---0---0---0--------|
   . .   .    .   .    .    .    .     . .    .    .   .   .   .   .  
D|----------------------------------------------------------------------|
A|----------------------------------------------------------------------|
F|----------------------------------------------------------------------|
C|-------------------------------------12t-10t-8t-10t-7t-8t-5t-7t-------|
G|-----8---12---8- -10---10---12---12-----------------------------------|
C|-0-0---0----0---0----0----0----0--------------------------------------|
   . .   .    .   .    .    .    .    
Guitar Two
0:50- 0:58
D|----------------------------------------------------------|
A|----------------------------------------------------------|
F|----------------------------------------------------------|
C|-----------------5~~~~--8-8---7--7--7--7------------------|
G|0-------0-0---- -5~~~~--8-8---7--7--7--7------------------|
C|0-------0-0------5~~~~--8-8---7--7--7--7------------------|





Both Guitars
1:07- 1:16
D|------------------------------------------------------------------|
A|------------------------------------------------------------------|
F|------------------------------------------------------------------|
C|------------------------------------------------------------------|
G|-----8---12---8- -5---5---5---5-----8---12---8---5---5---7---8----|
C|-0-0---0----0---0---0---0---0---0-0---0----0---0---0---0---0------|
   . .   .    .   .   .   .   .   . .   .    .   .   .   .   .

D|----------------------------------------------------------|
A|----------------------------------------------------------|
F|----------------------------------------------------------|
C|----------------------------------------------------------|
G|-----8---12---8- -5---5---5---5---------------------------|
C|-8-8---8----8---8---8---8---8-----------------------------|

Both Guitars
1:17 – 1:32
D|-------------------------------|
A|-------------------------------|
F|-------------------------------|
C|-------------------------------|
G|-000-000-----------------------|
C|-000-000-----------------------|
   ... ...
D|----------------------------------------|
A|----------------------------------------|
F|----------------------------------------|
C|-----0~~~~-----------------------0~~~~--| 
G|-000-0~~~~---0000000--000-0-000—-0~~~~--| X4
C|-000-0~~~~---0000000--000-0-000—-0~~~~--|
   ...         ......   ... . ...
1:32- 1:45
D|----------------------------------------------------------------------|
A|----------------------------------------------------------------------|
F|----------------------------------------------------------------------|
C|----------------------------------------------------------------------|
G|----------------------------------------------------------------------|
C|----------------------------------------------------------------------|

Both guitars
1:45- 2:07
D|----------------------------|         D|---------------------------
A|----------------------------|         A|---------------------------
F|----------------------------|    then F|---------------------------
C|----------------------------|         C|---------0~~~~-------------
G|-5t-------------------------| X4      G|-8-7-5-3-0~~~~-------------
C|--------8t----5t------------|         C|-8-7-5-3-0~~~~-------------






Guitar 
2:11-2:37 Ooops, kinda don't know about here.........
D|----------------------------------------------------------------------|
A|----------------------------------------------------------------------|
F|----------------------------------------------------------------------|
C|----------------------------------------------------------------------|
G|----------------------------------------------------------------------|
C|----------------------------------------------------------------------|

2:37- 2:48
D|--------------------------------------------------------------------|
A|--------------------------------------------------------------------|
F|--------------------------------------------------------------------|
C|---------------------------------------------------------0----------|
G|-000-000-----------008-008-7-5-0------000-000------------0---7---8--|
C|-000-000--788888---008-008-7-5-0------000-000--788888--000-00--0----|
   ... ...           ..  ..             ... ...          ..  ..  .

D|-----------------------------------------------------------|
A|-----------------------------------------------------------|
F|-----------------------------------------------------------|
C|---------------------------------------------------------0-|
G|-000-000-----------008-008-7-5-0------000-000------------0-|
C|-000-000--788888---008-008-7-5-0------000-000--788888--000-|
   ... ...           ..  ..             ... ...

2:48- 3:01

Guitar One
D|----------------------------------------------|
A|----------------------------------------------|
F|----------------------------------------------|
C|----------------------------------------------| X2
G|-000-000-0000000-000-0-000-000----------------|
C|-000-000-0000000-000-0-000-000----------------|
   ... ... ....... ... . ... ... 
Guitar Two
D|------------------------------------------------------------|
A|-10--------9-------6----------------------------------------|
F|-x---x16---x---X8--x-X8-------------------------------------|
C|-7---------6-------3----------------------------------------| X2
G|------------------------------------------------------------|
C|------------------------------------------------------------|

MU TI NY!

Then play the breakdown and chords two more times.

3:04 - 3:13
D|--------------------------------------------------------|
A|--------------------------------------------------------|
F|-5------------------------------------------------------|
C|-5-X8---8------5----------------------------------------|
G|-3------8-X8---5-X8-------------------------------------|
C|--------8------5----------------------------------------|



Both guitars
3:13- 3:27
D|----------------------------|         
A|----------------------------|         
F|----------------------------|    
C|----------------------------|         
G|-5t-------------------------| X4      
C|--------8t----5t------------|         

3:27- 3: 39
D|------------------------------------------------------------------|
A|------------------------------------------------------------------|
F|-5-5--5-5-5--5-5-5--5-5-5--5--------------------------------------|
C|-5-5--5-5-5--5-5-5--5-5-5--5-8-8--8-8-8--8-5-5--5-5-5--5----------| X2
G|-3-3--3-3-3--3-3-3--3-3-3--3-8-8--8-8-8--8-5-5--5-5-5--5----------|
C|-----------------------------8-8--8-8-8--8-5-5--5-5-5--5----------|

3:39 – 4:02
Guitar One
D|--------------------------------------------------|
A|--------------------------------------------------|
F|----10-10-10-10----10-10-10-10-10-12-12-12--------|
C|-----x-x--x--x------x-x--x--x--x--x--x--x---------|
G|-000-8-8--8--8--000-8-8--8--8--8--10-10-10--------|
C|-000------------000-------------------------------|
   ...            ...
D|---------------------------------------------------------|
A|---------------------------------------------------------|
F|-----1010-10-10-----10-10-10-10-10-9-9-9-----------------|
C|-----x-x--x--x-------x-x--x--x--x--x-x-x-----------------| X2
G|-000-8-8--8--8---000-8-8--8--8--8--7-7-7-----------------|
C|-000-------------000-------------------------------------|
   ...             ...



Guitar Two
3:51- 4:02

D|--------------------------------------------------|
A|--------------------------------------------------|
F|----14-14-14-14-----14-14-14-14-14-13-13-13-------|
C|-----x--x--x--x------x--x--x--x--x--x--x--x-------|
G|000-12-12-12—12-000-12-12-12-12-12-15-15-15-------|
C|000-------------000 -------------------------------|
  ...             ...
D|----------------------------------------------------|
A|----------------------------------------------------|
F|----14-14-14-14-----14-14-14-14-14-12-12-12---------|
C|-----x--x--x--x------x--x--x--x--x--x--x--x---------| X2
G|000-12-12-12—12-000-12-12-12-12-12-10-10-10---------|
C|000-------------000---------------------------------|
  ...             ...
4:02 -4:17
D|-------------------------------------------|
A|-------------------------------------------|
F|-------------------------------------------|
C|-------------------------------------------|
G|-8--7--5--7--5--3--------------------------|
C|-8--7--5--7--5--3--------------------------|
   .  .  .  .  .  .
D|--------------------------------------------------------|
A|--------------------------------------------------------|
F|--------------------------------------------------------|
C|--------------------------------------------------------|X2
G|-000---0-0-0--000-000-000--000-8-7-5-7-5-3--------------|
C|-000---0-0-0--000-000-000--000-8-7-5-7-5-3--------------|
   ...   . . .  ... ... ...  ... . . . . . .
Suggest correction
comments
print report bad tab
guest
You may want to rate the tab now too:
select rating
Wanna post a correction for this tab? Suggest correction