Oops, an error
Loading. Please wait.

Thoughts tab

by Adna
100 views 9 this week
no commentswrite comment
1 2 3 4 5
3 more votes to show rating
add to favorites
×
Save as Personal and add changes to this tab that will be seen only by you. Learn more ›
×
You can save this tab as Personal to edit and correct it or add notes. All changes will be seen only by you. Learn more »
launch autoscroll
font size
0
reset
how to read this tab
guitar tuner
edit
Autoscroll
slow
fast
+/-
esc
set tempo
stop
https://www.youtube.com/watch?v=D3fdetwmC3M

(These three pieces are played throughout the song, sometimes simultaneously.)
(If you listen to the song you can easily make out what to play when.)

E|------------------------------------|
B|---3-3-----5-5------8-8-----12-12---|
G|-0-------0--------0-----------------|
D|------------------------------------|
A|2------3--------7-------10----------|
E|------------------------------------|

E|------------------------------------|
B|-12-8-12-8-7-5-7--------------------|
G|------------------------------------|
D|------------------------------------|
A|------------------------------------|
E|------------------------------------|

(Piano piece)
E|------------------------------------|
B|0-3-5-7---5-7-8--7-8-12--10-12------|
G|------------------------------------|
D|------------------------------------|
A|------------------------------------|
E|------------------------------------|

went to write poetry about your spine
show you how you'd can spell like
Adriatic sea and suspense
let you meet my childhood small berry alleys 

dance through cornfields
dart through other faults
leave my inside in your hands
I identify myself with you

the sadness in your eyes
with you I want to feel again
be by your side
show you there's no one you like (x2)
show you how it's only you

Leave my thoughts tonight (x3)
if not for ever, only for tonight
leave me with the sight of being home then
I leave my thoughts tonight
leave my thoughts tonight (x3)

the sadness in your eyes
with you I want to feel again
be by your side
show you there's no one you like (x2)
show you how it's only you

leave my thoughts tonight (x4)

            
            
Suggest correction
Creating personal tab
Creating personal tab
You can edit any tab online and save it as your Personal.

You can edit, replace or remove any tab part or add personal notes – all changes will be seen only by you.

Personal tabs can be accessed anytime from any device, even offline.
Learn more »
Give kudos to tab author, rate the tab!
1 2 3 4 5
comments
print report bad tab
guest
You may want to rate the tab now too:
select rating
Wanna post a correction for this tab? Suggest correction