Oops, an error
Loading. Please wait.

Oh Holy Night tab

1,062 views 9 this week
no commentswrite comment
1 2 3 4 5
1 last vote to show rating
add to favorites
×
Save as Personal and add changes to this tab that will be seen only by you. Learn more ›
×
You can save this tab as Personal to edit and correct it or add notes. All changes will be seen only by you. Learn more »
launch autoscroll
font size
0
reset
how to read this tab
guitar tuner
edit
Autoscroll
slow
fast
+/-
esc
set tempo
stop
Author
O Holy Night “Cantique de Noel”
Author: Adolphe Charles Adam
Tabbed by: Markus Didik Naryadi 
                  didiknm@yahoo.com

Standard Tuning
Time Signature: 6/8
Key Signature: A Major


*** I found this fingerstyle on youtube & I tried to play this song with my guitar. 
I modified some parts and made it simple to be played. 
This is my first time to transcript a song into a tablature. 
So, please correct me if there were any mistake.....

    
                             O Holy Night
“Cantique de Noel”
                                                            //Repeat
e--------------|--------------|--------------|--------------|--------------|
B-------2------|-------0------|-------2------|-------2------|-2-----2---2--|
G-----2---2----|-----1---1----|-----2---2----|-----2---2----|-----2---2----|
D---2-------2--|---2-------2--|---2-------2--|---2-------2--|---2-------2--|
A-0------------|--------------|-0------------|-0------------|-0------------|
E--------------|-0------------|--------------|--------------|--------------|
 
e-0---------0--|-2-----2---2--|-5------------|-0-----0------|--------------|
B-------2------|-----3---3----|-------2------|-------2-2-0--|-------2---3--|
G-----2---2----|---2-------2--|-----2---2----|-----2---2----|-2---2---2----|
D---2-------2--|--------------|---2-------2--|---2-------2--|---2-------2--|
A-0------------|-5------------|-0------------|-0------------|-0------------|
E--------------|--------------|--------------|--------------|--------------|


e-0-----------|---------------|--------------|
B-------3---0-|-------2-------|-------2------|
G-----1---1---|-2---2---2-----|-----2---2----|
D---2-------2-|---2-------2---|---2-------2--|
A-------------|-0-------------|-0------------|
E-0-----------|---------------|--------------|



e--------------|-0---------0--|-2-----2---2--|-5------------|-0-----0------|
B-2-----2---2--|-------2------|-----3---3----|-------2------|---------4----|
G-----2---2----|-----2---2----|---2-------2--|-----2---2----|-----------6--|
D---2-------2--|---2-------2--|--------------|---4-------4--|---4-6--------|
A-0------------|-0------------|-5------------|--------------|-------3------|
E--------------|--------------|--------------|-2------------|-4------------|


e-4------------|-4-----7p5---4-|--------------|-----------0--|-0-----2------|
B-------5---7--|---------------|-------6------|-------6------|-------0------|
G-----6---6----|-----4---------|-----6---6----|-----6---6----|-----1---1----|
D---6-------6--|---6-----------|---6-------6--|---6-------6--|---2-------2--|
A-4------------|---------------|--------------|--------------|--------------|
E--------------|-4-------------|-9------------|-9------------|-0------------|


e-------0-------|-2-----5------|-2-----0---0--|-0-----2------|-------0------|
B-0-----0-------|-----5-2---2--|-------2------|-------0------|-0-----0------|
G-----1---1-----|-----2---2----|-----2---2----|-----1---1----|-----1---1----|
D---2-------2---|---2-------2--|---2-------2--|---2-------2--|---2-------2--|
A---------------|-0------------|--------------|--------------|--------------|
E-0-------------|--------------|-0------------|-0------------|-0------------|


e-2-----5-------|-0-------------|-5------------|-------4---2--|-4------------|
B-----5-2---2---|---------------|-------2------|-------2------|-------5------|
G-----2---2-----|-----2-----2---|-----2---2----|-----2---2----|-----6---6----|
D---2-------2---|---2-----2-----|---4-------4--|---4-------4--|---6-------6--|
A-0-------------|-0-------------|--------------|--------------|-4------------|
E---------------|-------4-------|-2------------|-2------------|--------------|

e-------4-------|-7-------------|-----2-2---2--|-5------------|-------5------|
B-------5-------|-------7-------|-------3------|-------2------|--------------|
G-----6---6-----|-----7---7-----|-----4---4----|-----2---2----|-----2-----2--|
D---6-------6---|---9-------9---|---4-------4--|---4-------4--|---4-----2----|
A-4-------------|---------------|-2------------|--------------|--------------|
E---------------|-7-------------|--------------|-2------------|-2-----4------|



e-9-------------|-7-----0---0---|-5------------|-----5-4---2--|-str0------------|
B-------5-------|-----0---0-----|-------2------|-----7-5---3--|-str2-----2------|
G-----6---6-----|---------------|-----2---2----|---7-7-6---4--|-str2---2---2----|
D---7-------7---|---6-------6---|---2-------2--|-0-------0----|-str2-2-------2--|
A-0-------------|---------------|-4------------|--------------|-----------------|
E---------------|-7-------------|--------------|--------------|-----------------|


                                                          | Ending 1---\\
e-----0-2---0---|-0-------------|-------5------|-7------------|------0-------|
B-------0-------|-------2-------|-------2------|---------0----|--------------|
G-----1---1-----|-----2---2-----|-----2---2----|-------7------|--------6-7---|
D---2-------2---|---2-------2---|---2-------2--|-----6-----6--|--6-7-9-------|
A---------------|-0-------------|-0------------|---7----------|--------------|
E-0-------------|---------------|--------------|-0------------|-0------------|



e-9-------------|-------7-------|-5------------|-----4-5---7--|-5------------|
B-----------5---|-----7---7-----|--------5-----|-----3-5------|-------5------|
G-9-6---------6-|---7-------7---|------6---6---|-----4-6------|-----6---6----|
D-------<7>-----|---------------|----7-------7-|---2-----7----|---7-------7--|
A-0---<7>-------|-5-------------|--------------|--------------|-0------------|
E---------------|---------------|-5------------|-0------------|--------------|



E(5)------------||
B-------5-------||
G-----6---6-----||
D---7-------7---||   Back to Repeat
A-0-------------||
E---------------||


Ending 2 ---\\
e-------0-------|-12--------------|-10-(10)-10-9-(9)-7--|-5------------|-----4-5---7--|
B---------------|--------10-------|---------------------|-5-----5------|-----3-5------|
G---------6-7---|-9----9----9-----|-11------11-9-(9)-7--|-6---6---6----|-----4-6------|
D---6-7-9-------|---11--------11--|------0--------------|-7-7-------7--|---2-----7----|
A-0-------------|-0---------------|---------------------|-0------------|--------------|
E---------------|-----------------|---------------------|--------------|-0------------|


e-5------------|(5)------------||
B------5-------|-------5-------||
G-----6---6----|-----6---6-----||
D---7-------7--|---7-------7---||
A-0------------|-0-------------||
E--------------|---------------||

            
            
Suggest correction
Creating personal tab
Creating personal tab
You can edit any tab online and save it as your Personal.

You can edit, replace or remove any tab part or add personal notes – all changes will be seen only by you.

Personal tabs can be accessed anytime from any device, even offline.
Learn more »
Give kudos to tab author, rate the tab!
1 2 3 4 5
comments
print report bad tab
guest
You may want to rate the tab now too:
select rating
Wanna post a correction for this tab? Suggest correction