Oops, an error
Loading. Please wait.

Favourite Fallen Idol Tab

431 views 1 this week
no commentswrite comment
1 2 3 4 5
3 more votes to show rating
add to favorites
launch autoscroll
font size
0
reset
how to read this tab
guitar tuner
Autoscroll
slow
fast
+/-
esc
set tempo
stop
Help us to improve Ultimate-Guitar.com Take our survey!
×
Author
Difficulty
novice
Adorable-Favourite Fallen Idol (Guitar tabs)
Tab by: Michael Casanova
Song Featured on the album “Against Perfection”
12/8/09
Tuning Standard

VERSE
e|4-4-4-4-4-4-0-7-7-7-7-7-7-0------------------------------------|
B|4-4-4-4-4-4-0-7-7-7-7-7-7-0------------------------------------|
G|5-5-5-5-5-5-1-8-8-8-8-8-8-1------------------------------------|
D|6-6-6-6-6-6-2-9-9-9-9-9-9-2------------------------------------|
A|6-6-6-6-6-6-2-9-9-9-9-9-9-2------------------------------------|
E|4-4-4-4-4-4-0-7-7-7-7-7-7-0------------------------------------|

CHORUS
e|5-5-5-5-5-5-5-5-5-5-5-5-5-5-5-5--2-2-2-2-2-2-2-2--0-0-0-0-0-0-0-0|
B|5-5-5-5-5-5-5-5-5-5-5-5-5-5-5-5--2-2-2-2-2-2-2-2--0-0-0-0-0-0-0-0|
G|6-6-6-6-6-6-6-6-6-6-6-6-6-6-6-6--2-2-2-2-2-2-2-2--1-1-1-1-1-1-1-1|
D|7-7-7-7-7-7-7-7-7-7-7-7-7-7-7-7--4-4-4-4-4-4-4-4--2-2-2-2-2-2-2-2|
A|7-7-7-7-7-7-7-7-7-7-7-7-7-7-7-7--4-4-4-4-4-4-4-4--2-2-2-2-2-2-2-2|
E|5-5-5-5-5-5-5-5-5-5-5-5-5-5-5-5--2-2-2-2-2-2-2-2--0-0-0-0-0-0-0-0|

CHORUS RIFF
e|---------------------------------------------------------------|
B|---------------------------------------------------------------|
G|--6-6---6---6---7-7-6---6-6------------------------------------|
D|7-----7---7---7-------7-----7-6---6---6h7p6--------------------|
A|--------------------------------7---7-------7------------------|
E|---------------------------------------------------------------|



BRIDGE
e|7~~~~----------|
B|7~~~~----------|
G|8~~~~----------| ~=let ring with a lot of feedback
D|9~~~~----------|
A|9~~~~----------|
E|7~~~~----------|

Verse (guitar starts on "Travelling....")
When I fail, I want to fail completely
And when I fall, I want to do it neatly
Travelling side by side
All due haste to my demise
Flickering in firelight
I'm gonna burn like Joan tonight

Chorus
Oh, this is the angel's sound
With wingtips singed
You're surely heaven bound

Verse (guitar starts on "Underwater....")
I'm only falling now just to entertain you
I'm only failing here, because there's little else to do
Underwater, coming up for air
Wallow in self-pity and despair
Well, I haven't got a care
I've gotta do my hair
I've gotta do my hair

Chorus
Oh, this is the angel's sound
With wingtips singed
You're surely heaven bound
Oh, your fallen idol
Oh, you're my favorite fallen idol

Bridge
I'm only falling to entertain you
I'm only falling just to entertain you
I'm only falling just to entertain you
Pretend
Pretence
Pretend
Pretend

Play Verse part before end

http://www.youtube.com/watch?v=jrq5zIfXG5s

for any questions/comments/suggestions email me at 
Modrock1992@gmail.com   
Cheers
-Michael
Suggest correction
Give kudos to tab author, rate the tab!
1 2 3 4 5
comments
print report bad tab
guest
You may want to rate the tab now too:
select rating
Wanna post a correction for this tab? Suggest correction