Oops, an error
Loading. Please wait.

Sunshine Smile Tab

1,990 views 6 this week
1 commentread comment
1 2 3 4 5
excellent!
x 1
add to favorites
launch autoscroll
font size
0
reset
how to read this tab
guitar tuner
Tab Pro tools
  • play this tab
  • loop segment
  • change instrument
  • show fretboard
  • metronome
Autoscroll
slow
fast
+/-
esc
set tempo
stop
Contributor
Difficulty
intermediate
Adorable-Sunshine (Smile Guitar tabs)
Tab by: Michael Casanova
Song Featured on the album “Against Perfection”
12/8/09
Tuning Standard

Intro Riff				(variation played on 3rd & 4th repeat of riff)
e|5-5-5-5-5-4-4-5-5-5-5-5-4-5-4-----|---------------------------------|
B|------------------------------5---|---------------------------------|
G|----------------------------------|---------------------------------|
D|----------------------------------|5-5-5-5-5-4-4-5-5-5-5-5-4-5-4----|
A|----------------------------------|------------------------------5--|
E|----------------------------------|---------------------------------|

Bridge Riff

e|----7----7---------7------7------------4----4--------5---5------|
B|----------------10-----10-----10-----5----5----5---5----5---5---|
G|8h9--8h9---8--9------9------9------4----4----4---6----6---6-----|
D|----------------------------------------------------------------|
A|----------------------------------------------------------------|
E|----------------------------------------------------------------|


Chords: 
D:(10-12-12-11-10-10) 
E1:(12-14-14-13-12-12)
E2:(0-2-2-1-0-0-)
E3:(x-7-9-9-9-x)
B:(7-9-9-8-7-7)
A:(5-7-7-6-5-5)


(play riff for this verse, no chords)
And then she smiled
Just for fraction of a little while
And everything was warm again inside
She's got a sunshine smile
The kind that warms up the corners of my cold room
She's got a sunshine smile
The kind that makes you forget again


D	E1	D	E2
Sunshine smile
Sunshine smile
Sunshine smile
Sunshine smile

B	A	E3	A 	(play bridge riff)
And then she said
"If I'm going to be someone else
I'd rather be somebody else with you"
That's exactly how I felt to her
How does it feel?
(end on a ringing B)

riff 2
e|--------------------------------------------------------------------|
B|5----5-----5----5----9---9-----9-----9------------------------------|
G|--------------------------------------------------------------------|
(bend these notes slowly with whammy bar*if you have one*)


Play riff 2 throughout

The way I feel
Doesn't feel quite real
How does it feel to feel?
She's got a sunshine smile
The kind that warms up the corners of my cold room
She's got a sunshine smile
The kind that makes you forget again

D	E1	D	E2
Sunshine smile
Sunshine smile
Sunshine smile
Sunshine smile

B	A	E3	A	(play bridge riff)
And then she said
If I'm going to be someone else
I'd rather be somebody else with you
That's exactly how I felt, uh-huh
How does it feel to feel?
And for that one short while
It was as if she'd only just learned how to smile

http://www.youtube.com/watch?v=AfHQ-ig2pkA

for any questions/comments/suggestions email me at 
Modrock1992@gmail.com	
Cheers
-Michael
comments
We did not receive enough feedback on this tab! Please rate:
print report bad tab
1 2 3 4 5
1 comment total.
0 reply
belowyourfeet wrote on January 29 2016, 03:34 pm

Sounds like the start of bridge riff is


e|---------------------
B|----7----7--------10- ...etc
G|8h9--8h9---8--9-9----
D|---------------------
A|---------------------
E|---------------------

(different string on 7th fret and extra note at the 9th)

I want to post or [tab]
guest
You may want to rate the tab now too:
select rating
Please do not post tabs as comments. Select "correction" instead!