Oops, an error
Loading. Please wait.

The Crockett Waltz Tab

115 views 1 this week
no commentswrite comment
1 2 3 4 5
3 more votes to show rating
add to favorites
launch autoscroll
font size
0
reset
how to read this tab
guitar tuner
Autoscroll
slow
fast
+/-
esc
set tempo
stop
Author
Difficulty
Tuning
intermediate
C G C F A D
-------------------------------------------------------------------------------
                             The Crockett Waltz - Adrian Legg
-------------------------------------------------------------------------------
Tabbed by: takedasoft
Tuning:CGCFAD(Drop C)

whole song is
 1st section x 2
 2nd section x 2
 3rd section x 2
 4th section x 1
 5th section x 2
 Bridge
 1st section x 1
 2nd section x 1
 3rd section x 1
 4th section x 1
 5th section x 1

========= 1st section =========

D|-----|------------------|----------------|----------------|----------------|
A|-----|------------------|----------------|----------------|----------------|
F|---0-|-2-h4p2p0---------|----------------|----------------|-------------0--|
C|-4---|-----------4-2-0--|-2---0h2--------|-0---0---2420-2-|-4-p2p0--2-4----|
G|-----|------------------|-0--------5p2p0-|---2-----0------|---------0------|
C|-----|-0----------------|----------------|-5--------------|-0--------------|

D      |------------------|----------------|----------------|----------------|
A      |------------------|----------------|----------------|----------------|
F      |-2-h4p2p0---------|----------------|----------------|-0--------------|
C      |-----------4-2-0--|-2---0h2--------|-0---0--242-----|-0--------------|
G      |------------------|-0--------5p2p0-|---2----0---4-5-|-----------0----|
C      |-0----------------|----------------|-5--------------|-5-4-2-0-4------|

D      |----------------|----------------|
A      |----------------|-------3--------|
F      |----------------|-0-----2--------|
C      |-----0--242-----|-0-----0--------|
G      |---2----0---4-5-|----------------|
C      |-5--------------|-5-4-2-0--------|

========= 2nd section =========

D|-2-3-|-5-h7p5---2-------|----------------|--------2p0---0-|-2-p0----0-2-3--|
A|-----|------------3-3---|-5-7p5p3-3p0----|-3---3------3---|------3---------|
F|-----|------------------|-------------2--|---4------------|----------------|
C|-----|------------------|----------------|----------------|----------------|
G|-----|------------------|-0-------0------|--------0-------|---------0------|
C|-----|-0--------0-------|----------------|-5--------------|-0--------------|

D      |-5-h7p5---2-------|----------------|--------2p0-----|----------------|
A      |------------3-3---|-5-7p5p3-3p0----|-3---3------2-3-|-3-----3--------|
F      |------------------|-------------2--|---4------------|-0---------2----|
C      |------------------|----------------|----------------|---4-2-0-4------|
G      |------------------|-0-------0------|--------0-------|----------------|
C      |-0--------0-------|----------------|-5--------------|----------------|

D      |--------2p0-----|----------------|
A      |-----3------2-3-|-3-----3--------|
F      |---4------------|-0-----2--------|
C      |-5--------------|---4-2-0--------|
G      |--------0-------|----------------|
C      |----------------|-------0--------|

========= 3rd section =========

D|-----|--------------|--------------|-------5-2----|--2----0------|
A|-----|--------------|--------7-----|-----------3--|--2----2------|
F|-----|--------7-----|--------------|--------------|--2----2------|
C|-4-5-|-57545----4-5-|-57545----4-5-|-57545--------|----------4-5-|
G|-----|--------------|--------------|--------------|--0----0------|
C|-----|-0------0-----|-0------0-----|-0-----0------|--------------|

D      |--------------|--------------|-5-p2-----0-2-|--0-----------|
A      |--------------|--------7-----|------3-3-----|-------3------|
F      |--------7-----|--------------|--------------|--0----2------|
C      |-57545----4-5-|-57545--------|--------------|--------------|
G      |--------------|--------------|--------------|--0-----------|
C      |-0------0-----|-0------0-----|-0------0-----|-------0------|

========= 4th section =========

D|-2-3-|-5-p2------2--5--|-/10p9p7-5p2----|--2----0------|------------2-3-|
A|-----|------3--3-------|-------------3--|--2----2--2-3-|-5-p3p2p0-------|
F|-----|-----------------|----------------|--2----2------|----------2-----|
C|-----|-----------------|----------------|--------------|----------------|
G|-----|-----------------|----------------|--0----0------|-0--------0-----|
C|-----|-0-------0-------|--0------0------|--------------|----------------|

D      |-5-p2------2--5--|-/10p9p7-5p2----|--2----0------|----------------|
A      |------3--3-------|-------------3--|--2----2------|-3-----3--------|
F      |-----------------|----------------|--2----2------|-0---------2----|
C      |-----------------|----------------|--------------|---4-2-0-4------|
G      |-----------------|----------------|--0----0------|----------------|
C      |-0-------0-------|--0------0------|--------------|----------------|

D      |--------2p0-----|----------------|
A      |-----3------2-3-|-3-----3--------|
F      |---4------------|-0-----2--------|
C      |-5--------------|---4-2-0--------|
G      |--------0-------|----------------|
C      |----------------|-------0--------|

========= 5th section =========

D|-2-3-|-5-p2------2-5-|-/10-p9--7h9p7--|-5-2-----0-2-|-0-----0--2-3-|
A|-----|------3--3-----|----------------|-----3-3-----|----3---------|
F|-----|---------------|--0------0------|-------------|--------------|
C|-----|-0-------0-----|----------------|-0-----0-----|--------------|
G|-----|---------------|----------------|-------------|-3-----4------|
C|-----|---------------|----------------|-------------|--------------|

D      |-5-p2------2-5-|-/10-p9--7h9p7--|-5-2---020---|----------2-3-|
A      |------3--3-----|----------------|-----3-----2-|-3------------|
F      |---------------|--0------0------|-------------|-2------------|
C      |-0-------0-----|----------------|-0-----------|-0-----0------|
G      |---------------|----------------|-------0-----|--------------|
C      |---------------|----------------|-------------|--------------|

========= Bridge =========

D|-------------|---------------|-------------|---------------|-------|
A|-------------|---------------|-------------|---------------|-3-----|
F|-------------|---------------|-------------|---------0-----|-2-----|
C|-----0-----0-|-4p2-----0-----|-----0-----0-|-4p2-----0-----|-0-----|
G|---0-----2---|----4-h5-------|---0-----2---|----4-h5-------|-------|
C|-0-----5-----|---------5-4-2-|-0-----5-----|---------5-4-2-|-0-----|


************************************
57545 means 5h7p5p4h5
| /   slide up
| h   hammer-on
| p   pull-off
************************************
Suggest correction
Give kudos to tab author, rate the tab!
1 2 3 4 5
comments
print report bad tab
guest
You may want to rate the tab now too:
select rating
Wanna post a correction for this tab? Suggest correction