Oops, an error
Loading. Please wait.

Indiana tab

532 views 21 this week
1 commentread comment
1 2 3 4 5
x 4
add to favorites
×
Save as Personal and add changes to this tab that will be seen only by you. Learn more ›
×
You can save this tab as Personal to edit and correct it or add notes. All changes will be seen only by you. Learn more »
launch autoscroll
font size
0
reset
how to read this tab
guitar tuner
edit
Autoscroll
slow
fast
+/-
esc
set tempo
stop
About this tab version
Didn't find a tab for picking so I made one. Pretty rough open to improvements. Was this info helpful? Yes No
[Intro]
e|--------------------------------|
B|---0---0---0---------------0---0|
G|-0---0---0-----0---0-0---0---0--|
D|--0---0---0---0---0---0---0---0-| (x2)
A|------------02--02--------------|
E|3---2---0-----------2---3---3---|

[Verse]
e|---------------------------2---2---2---2---2---0--0-------|
B|---0---0---0-------------3---3---3---3---3---1--1-----0--0|
G|-0---0---0-----0---0-0-0--2---2---2---2---2---0--0--0--0--|
D|--0---0---0---0---0---0------------------------------0--0-| (x2)
A|------------02--02----------------------------------------|
E|3---2---0-----------2---0---0---0---0---0---0------3------|

[Chorus]
e|-------------------2---2--------|
B|---1---1---1---1-3---3-----0---0|
G|-0---0---2---2----2---2--0---0--|
D|--2---2---2---2-----------0---0-| (x4)
A|--------------------------------|
E|0---0---0---0---0---0---3---3---|

[Bridge]
e|-------------------2---2|
B|---1---1---1---1-3---3--|
G|-0---0---2---2----2---2-|
D|--2---2---2---2---------|
A|------------------------|
E|0---0---0---0---0---0---|

Order:
Intro
Verse
Chorus
Bridge
Intro
Verse 
Chorus
Bridge
Intro
Suggest correction
Creating personal tab
Creating personal tab
You can edit any tab online and save it as your Personal.

You can edit, replace or remove any tab part or add personal notes – all changes will be seen only by you.

Personal tabs can be accessed anytime from any device, even offline.
Learn more »
comments
print report bad tab
1 comment total.
+1 reply
ceciliax 10 Jun 05, 2017 09:56 PM, edited on June 6 2017, 01:56 am

I think for the D parts the low E string should be a 2 instead of a 0 ??Sounds better to me anyway...
Other than that it's awesome thank you!

guest
You may want to rate the tab now too:
select rating
Wanna post a correction for this tab? Suggest correction