Oops, an error
Loading. Please wait.

24000 Baci chords

2,257 views 21 this week
no commentswrite comment
1 2 3 4 5
2 more votes to show rating
add to favorites
×
Save as Personal and add changes to this tab that will be seen only by you. Learn more ›
×
You can save this tab as Personal to edit and correct it or add notes. All changes will be seen only by you. Learn more »
launch autoscroll
font size
0
reset
transpose
0
reset
simplify chords
display chords
guitar tuner
edit
Autoscroll
slow
fast
+/-
esc
set tempo
stop
Author
Difficulty
Strumming
There is no strumming pattern for this song yet. and get +5 IQ
-------------------------------------------------------------------------------
                Venti-quattro mila baci - Adriano Celentano
-------------------------------------------------------------------------------
Tabbed by: cachabolik

Tuning:standard

intro
e|---------------------------------------------------------------------------|
B|---------------------------------------------------------------------------|
G|---------------------------------------------------------------------------|
D|-2-0-----------------------------------------------------------------------|
A|-----3-2-(0)---------------------------------------------------------------|
E|---------------------------------------------------------------------------|

Am  B7
Amami
Dm        E
Ti voglio bene!


e|---------------------------------------------------------------------------|
B|---------------------------------------------------------------------------|
G|---------------------------------------------------------------------------|
D|-2---2-2---2-----2-2---2----2-2-2-2----------------------------------------|
A|---2-----2-----2-----2-----------------------------------------------------|
E|---------------------------------------------------------------------------|

                        F    E
Con venti-quattro mila baci
                       F    E
Oggi saprei perche L'amore
                         Am  E
Vuole ogn'istante mille baci
                        Am   E
Mille carezze vuole all'ora.

                        F   E
Con venti-quattro mila baci
                  F   E
Felici corrono le ore
                       Am     E
Di un giorno splendido perche
              Am    E
Ogni secondo bacio te.

                           Am
Niente bugie meravigliose,
                           Am
Frasi d'amore appassionate,
                       Am
Ma solo baci che do a te,
Dm   G    C
Ye.. Ye.. Ye!

                        F   E
Con venti-quattro mila baci
                    F   E
Cosi Frenetico L'amore
                        Am  E
In questo giorno di follia
                    Am   E
Ogni minute Tutto mio.

SOLO (as verse)

                           Am
Niente bugie meravigliose,
                           Am
Frasi d'amore appassionate,
                       Am
Ma solo baci che do a te,
Dm   G    C
Ye.. Ye.. Ye!

                        F  E
Con venti-quattro mila baci
                   F  E
Cosi Frenetico L'amore
                        Am  E
In questo giorno di follia
                   Am E
Ogni minuto Tutto mio.

                        F  E
Con venti-quattro mila baci
                  F  E
Felici corrono le ore
                            Am  E
Di un giorno splendido perche
                    Am E
Ogni secondo bacio te




please rate
salud amigos!

            
            
Suggest correction
Creating personal tab
Creating personal tab
You can edit any tab online and save it as your Personal.

You can edit, replace or remove any tab part or add personal notes – all changes will be seen only by you.

Personal tabs can be accessed anytime from any device, even offline.
Learn more »
Give kudos to tab author, rate the tab!
1 2 3 4 5
comments
print report bad tab
guest
You may want to rate the tab now too:
select rating
Wanna post a correction for this tab? Suggest correction